Search tabs:
Browse artists: 0-9 | A | B | C | D | E | F | G | H | I | J | K | L | M | N | O | P | Q | R | S | T | U | V | W | X | Y | Z
/ / / guitar tab

FOR AIR
John Frusciante
Transcribed by tomas333@yahoo.com

Half Step Down

E-|-2-2------2---------------------------------------------------------------------|
A-|--------------------------------------------------------------------------------|
D-|-------4-------------------------4------4-4----------0--------------------------|
G-|-------------6(bend)-6(bend)--4----------------------------------------------11-|
B-|------------------------------------5------------7-------7--8--10--8-----10-----|
e-|----------------------------------------------7-----------------------9---------|

E-|-7-7----7-------------------------------7-7-----7------------------|
A-|-------------------------------------------------------------------|
D-|-----------------0-0------0-0------0--------------------0------0---|
G-|-------------2/0------2/0------2/0-----------------2/0-----2/0-----|
B-|------7--------------------------------------7---------------------|
e-|------7--------------------------------------7---------------------|

E-|-2-2------2---------------------------------------------------------------------|
A-|--------------------------------------------------------------------------------|
D-|-------4-------------------------4------4-4----------0--------------------------|
G-|-------------6(bend)-6(bend)--4-------------------------------------------------|
B-|------------------------------------5------------7-------7--8-----8-7-----------|
e-|----------------------------------------------7----------------9----------------|

E-|-7-7----7------------------------7-7-----7------------------------0---0----|
A-|------------------------------------------------------------------2---2----|
D-|-----------------0--------0-----------------------0------0--------2---2----|
G-|-------------2/0-----2/0---------------------2/0-----2/0----------0---0----|
B-|------7-------------------------------7---------------------------1-/-0----|
e-|------7-------------------------------7---------------------------0---0----|


E Minor - A Minor - G - E Minor - G - E Minor
E Minor - A Minor - G - E Minor - G - E Minor

D - E Minor - G
F - C - D

E-|-2-2-----2-------2-2-----2-------2-2-----2--------2-2------2-|
A-|-------------1---------------2---------------1---------------|
D-|------4------4-------4-------5--------4------4----------4----|
G-|-------------3---------------4---------------3---------------|
B-|-------------------------------------------------------------|
e-|-------------------------------------------------------------|

E-|-7-7----7-------------------------------7-7-----7------------------|
A-|-------------------------------------------------------------------|
D-|-----------------0-0------0-0------0--------------------0------0---|
G-|-------------2/0------2/0------2/0-----------------2/0-----2/0-----|
B-|------7--------------------------------------7---------------------|
e-|------7--------------------------------------7---------------------|  x2

E-|-7-7----7------------------------7-7-----7--------------------|
A-|--------------------------------------------------------------|
D-|------------------0-------0------------------------0------0---|
G-|-------------2/0-----2/0----------------------2/0-----2/0-----|
B-|------7--------------------------------7----------------------|
e-|------7--------------------------------7----------------------|

E-|-7-7----7---------------------7-7-----7---|
A-|------------------------------------------|
D-|-----------------0-------0----------------|
G-|-------------2/0-----2/0------------------|
B-|------7----------------------------7------|
e-|------7----------------------------7------|


albums
tabs

 

1