Search tabs:
Browse artists: 0-9 | A | B | C | D | E | F | G | H | I | J | K | L | M | N | O | P | Q | R | S | T | U | V | W | X | Y | Z
/ / / guitar tab

WELL, I'VE BEEN

By John Frusciante
Transcribed by tomas333@yahoo.com

Half Step Down

E-|--------------------------------|--------------------------------|
A-|--------------------------------|--------------------------------|
D-|--------------------------------|--------------------------------|
G-|--------------------------------|--------------------------------|
B-|----12--0--10--0--8--0--7-0--5--|-0--12--0--10--0--8--0--7-0--5--|
e-|-----0------0-----0-----0----0--|-----0------0-----0-----0----0--|

E-|---------------------------------|-----------------|----------------------------------------------|
A-|---------------------------------|-----------------|----------------------------------------------|
D-|---------------------------------|-----------------|----------------------------------------------|
G-|-----------------5---5---5---5---|-----------------|-7/9-9------------------9-7-5-7-5-7(bend)-7-5-|
B-|-6---6---6---6-----0---0---0---0-|-6---6---6---6---|-------10--8(bend)-10-8-----------------------|
e-|---0---0---0---0-----------------|---0---0---0---0-|----------------------------------------------|

       A Minor         G (Barre Chords)           F

E-|--------------------------------|-------------------------------------------------------------|
A-|--------------------------------|-------------------------------------------------------------|
D-|--------------------------------|-------------------------------------------------------------|
G-|--------------------------------|-------------------------------------------------------------|
B-|----12--0--10--0--8--0--7-0--5--|-----------------------17-17(repeat)-17(bend)-17-19(bend)-17-|
e-|-----0------0-----0-----0----0--|--19-19-19-19-(repeat)---------------------------------------|

          A Major

E-|--------------------------------|--------------------------------|
A-|--------------------------------|--------------------------------|
D-|--------------------------------|--------------------------------|
G-|--------------------------------|--------------------------------|
B-|----12--0--10--0--8--0--7-0--5--|-0--12--0--10--0--8--0--7-0--5--|
e-|-----0------0-----0-----0----0--|-----0------0-----0-----0----0--|

E-|---------------------------------|-----------------|
A-|---------------------------------|-----------------|
D-|---------------------------------|-----------------|
G-|-----------------5---5---5---5---|-----------------|  A Minor - G - F
B-|-6---6---6---6-----0---0---0---0-|-6---6---6---6---|
e-|---0---0---0---0-----------------|---0---0---0---0-|


C

E-|--------------------------------------------------------------------------------------------------|
A-|--------------------------------------------------------------------------------------------------|
D-|--------------------------------------------------------------------------------------------------|
G-|-9---------9----------------------------------7(bend)-7-5-7(bend)-------7(bend)----7(bend to E)---|
B-|---6/8-10-----8-10----------------------10-8-----------------------8------------------------------|
e-|--------------------8-10(bend)-8/10---8-------------------------------10--------5-----------------|

C                     A Minor C Aminor C                                            G                E

E-|-----------------------------------------------------------------------------------------|
A-|-----------------------------------------------------------------------------------------|
D-|-----------------------------------------------------------------------------------------|
G-|-7(tremolo picking, bend to E and back)-----9------9-------9------------------9----------|
B-|----------------------------------------------8/10---8/10----8/10--10(bend)/8------------|
e-|--------------------------------------------------------------------------------8-10-8-7-|

       C             G          E                  

E-|------------------------------------------------------------------------------------------------------------------------|
A-|---------------------------------------------------------------------------------------------------14-------------------|
D-|---------------------------------------------------------------------------------------14----14-12----------------------|
G-|------------------------------------------------------------------14(bend)-12/14-14/12----12----------------------------|
B-|------------------------------------------------------------------------------------------------------15(bend to E)-----|
e-|-12(tremolo picking)-12/13/12--12/14/12-12/13/12--20-19-17-19-15-----------------------------------------------------12-|


C  G  E 
 


albums
tabs

 

1