Search tabs:
Browse artists: 0-9 | A | B | C | D | E | F | G | H | I | J | K | L | M | N | O | P | Q | R | S | T | U | V | W | X | Y | Z
/ / / guitar tab

John Frusciante - Away & Anywhere
Tabbed By:

Main part

E|(6)-(6)--(4)-(4)--6-|----------------|
B|(6)-(6)--(4)-(4)--6-|-6-6-6-6-6-6-6--|
G|(6)-(6)--(5)-(5)--6-|----------------|
D| 8 - 8 -- 6 - 6 --8-|----------------|
A| 8 - 8 -- 6 - 6 --8-|----------------|
E|-6 - 6 -- 4 - 4 --6-|----------------|

E|(6)-(6)--(4)-(4)--6-|----------------|
B|(6)-(6)--(4)-(4)--6-|-6-6-6-6--------|
G|(6)-(6)--(5)-(5)--6-|----------------|
D| 8 - 8 -- 6 - 6 --8-|----------------|
A|-8 - 8 -- 6 - 6 --8-|----------------|
E| 6 - 6 -- 4 - 4 --6-|----------------|

other part

Bbm    Ab    Ebm   Ebm


albums
tabs

 

1