Search tabs:
Browse artists: 0-9 | A | B | C | D | E | F | G | H | I | J | K | L | M | N | O | P | Q | R | S | T | U | V | W | X | Y | Z
/ Kelly Clarkson / Breakaway (2004) / Behind These Hazel Eyes guitar tab

This song is great! Had to listen to it a lot to do this though..
This is my first attempt i think it's pretty close.
Here it is:

Intro:
/w distortion
e|----------------------------|
B|----------------------------|
G|---77-----77----77----77----| (x1)
D|--4777---4779--4777--4779---|
A|--4557---4559--4557--4559---|
E|--2--5---2--7--2--5--2--7---|

Verse:
clean
e|--------0----------0----------0---------------------|
b|---9-10----10----10---10-----0----------------5-----|
g|-------------11-----------6------6--------4---------|  (x8)
d|---------------------------------------6---------6--|
a|----------------------------------------------------|
E|----------------------------------------------------|
Seems like just yesterday
You were a part of me
I used to stand so tall
I used to be so strong
Your arms around me tight
Everything, it felt so right
Unbreakable, like nothin' could go wrong

/w distortion
e|--------------------|
b|--------------------|
g|--------------------|  (x1)
d|---4-7-4-7-4-7-77777|
a|---4-7-4-7-4-7-77777|
E|---2-9-2-9-2-9-99999|
Now I can't breathe
No, I can't sleep
I'm barely hanging on

Chorus:
/w distortion
e|-------------------------------------------|
B|-------------------------------------------|
G|--------7777----77777-------7777----77777--| (x1)
D|---444447777777777777--444447777777777777--|
A|---444445555777799999--444445555777799999--|
E|---22222----5555-------22222----5555-------|
Here I am, once again
I'm torn into pieces
Can't deny it, can't pretend
Just thought you were the one

e|----------------------------------|
b|----------------------------------|
g|---------7777---------------------|  (x1)
D|---4444447777999999999---444121212|
A|---4444445555999999999---444121212|
E|---222222----777777777---222101010|
Broken up, deep inside
But you won't get to see the tears I cry
Behind these hazel eyes

Verse:
clean
e|--------0----------0----------0---------------------|
b|--9-10----10----10---10-----0----------------5------|
g|-------------11-----------6------6--------4---------|  (x8)
d|---------------------------------------6---------6--|
a|----------------------------------------------------|
E|----------------------------------------------------|
I told you everything
Opened up and let you in
You made me feel alright
For once in my life
Now all that's left of me
Is what I pretend to be
So together, but so broken up inside

e|------------------------|
b|------------------------|
g|------------------------|  (x1)
d|---4-7-4-7-4-7-77777-9/4|
a|---4-7-4-7-4-7-77777-9/4|
E|---2-9-2-9-2-9-99999-7/2|
'Cause I can't breathe
No, I can't sleep
I'm barely hangin' on

Chorus:
/w distortion
e|---------------------------------------------|
B|---------------------------------------------|
G|----------7777----77777-------7777----77777--| (x1)
D|-----444447777777777777--444447777777777777--|
A|-----444445555777799999--444445555777799999--|
E|-----22222----5555-------22222----5555-------|
Here I am, once again
I'm torn into pieces
Can't deny it, can't pretend
Just thought you were the one

e|----------------------------------|
b|----------------------------------|
g|---------7777---------------------|  (x1)
D|---4444447777999999999---444121212|
A|---4444445555999999999---444121212|
E|---222222----777777777---222101010|
Broken up, deep inside
But you won't get to see the tears I cry
Behind these hazel eyes

Bridge:
/w distortion
e|--------------------|
b|--------------------|
g|---444447777--------|  (x4)
D|---4444477777777777-|
A|---2222255557777777-|
E|------------9999999-|
Swallow me then spit me out
For hating you, I blame myself
Seeing you it kills me now

e|-----------------------|
B|-----------------------|
G|--------7777----77777--| (x1)
D|---444447777777777777--|
A|---444445555777799999--|
E|---22222----5555-------|
No, I don't cry on the outside
Anymore...

clean
e|--------0----------0----------0---------------------|
b|--9-10----10----10---10-----0----------------5------|
g|-------------11-----------6------6--------4---------|  (x4)
d|---------------------------------------6---------6--|
a|----------------------------------------------------|
E|----------------------------------------------------|

Chorus:
/w distortion
e|----------------------------------------------------------------|
B|----------------------------------------------------------------|
G|--------7777----77777-------7777----77777--------7777-----------| (x2)
D|---444447777777777777--444447777777777777--4444447777999999999--|
A|---444445555777799999--444445555777799999--4444447777999999999--|(lyricsx2)
E|---22222----5555-------22222----5555-------222222----777777777--|
Here I am, once again
I'm torn into pieces
Can't deny it, can't pretend
Just thought you were the one
Broken up, deep inside
But you won't get to see the tears I cry
Behind these hazel eyes

e|------------|
b|------------|
g|------------|  (x1)
D|---444121212|
A|---444121212|
E|---222101010|
Behind these hazel eyes...

Any corrections queries e-mail me @ lil_lama@hotmail.com
Enjoy!


Kelly Clarkson albums
2004 Breakaway
2003 Thankful
Breakaway tabs
01Breakaway tabbass tab
02Since U Been Gone tabbass tab
03Behind These Hazel Eyes tabbass tab
04Because of You tabbass tab
06Addicted tabbass tab
07Where Is Your Heart tabbass tab
09You Found Me tabbass tab
11Hear Me tabbass tab

 

1