Search tabs:
Browse artists: 0-9 | A | B | C | D | E | F | G | H | I | J | K | L | M | N | O | P | Q | R | S | T | U | V | W | X | Y | Z
/ Kelly Clarkson / Breakaway (2004) / Since U Been Gone guitar tab

Artist:  Kelly Clarkson
SOng:    Since You've Been Gone

Note-KElly CLarkson IS A REally GOod SIngger...BUt IM ONly TAbbing THis BEcause
I WAnt TO TAb A LOt


E|-------------------------------||
B|-------------------------------||
G|-------------------------------||
D|-------------------------------||
A|---5~~~-7-7-7--2~~~-2-2-2------||
E|---3~~~-5-5-5--0~~~-1-1-1------||


E|---------------------------||
B|---------------------------||
G|---------------------------||
D|---------------------------||
A|---9-9-9-9-10-10--5~~~-----||
E|---7-7-7-7--8--8--3~~~-----||


E|---------------------||
B|---------------------||
G|---------------------||
D|---------------------||
A|---10~~-5~~~-7~~~----||
E|---8~~~-3~~~-5~~~----||


ThTs about all the verses...just put them in order...i sadly cant do tht for u
because my bro is drumming and i cant hear my guitar


________________________________________________________
Sumo man


Kelly Clarkson albums
2004 Breakaway
2003 Thankful
Breakaway tabs
01Breakaway tabbass tab
02Since U Been Gone tabbass tab
03Behind These Hazel Eyes tabbass tab
04Because of You tabbass tab
06Addicted tabbass tab
07Where Is Your Heart tabbass tab
09You Found Me tabbass tab
11Hear Me tabbass tab

 

1