Search tabs:
Browse artists: 0-9 | A | B | C | D | E | F | G | H | I | J | K | L | M | N | O | P | Q | R | S | T | U | V | W | X | Y | Z
/ Kid Rock / Cocky (2001) / Forever guitar tab

-------------------------------------------
 -------------------------------------------
 -------------------------------------------
 ----------2--------------------2-----------
 -------------------------------------------
 0-0-0-3-0---0-0-0-3-0--0-0-3-0---0-0-0-3-0-

 --------
 --------
 --------
 --------
 --------
 0-0-0-0-

-------------------------------------------
 -------------------------------------------
 -------------------------------------------
 ----------2--------------------2-----------
 -------------------------------------------
 0-0-0-3-0---0-0-0-3-0--0-0-3-0---0-0-0-3-0-

 Kid rock
 Forever
 Regular tuning
 Guitar


Kid Rock albums
2003 Kid Rock
2001 Cocky
1998 Devil Without A Cause
1993 The Polyfuze Method
Cocky tabs
02Forever tabbass tab
04Cocky tabbass tab
07Lonely Road of Faith tabbass tab
09Picture tabbass tab
11Midnight Train to Memphis tabbass tab

 

1