Search tabs:
Browse artists: 0-9 | A | B | C | D | E | F | G | H | I | J | K | L | M | N | O | P | Q | R | S | T | U | V | W | X | Y | Z
/ / / guitar tab

standard tuning

||-5--------3-----------------1--0h1p0--------------------------|
||----5--------3-----5--5--5------------3--2--0-----------------|
||-------5--------4--5--4--5---------------------2--1--1--2--2--|
||----------0--------5--4--2------------------------------------|
||--------------------------------------------0-----2--------0--|
||-5--------------------------1---------3--------------0--------|

|-10-------8--------------------6--5h6p5--------------------------|
|----10-------8-----10--10--10------------8--6--5-----------------|
|-------10-------9--10---9--10---------------------7--6--6--7--7--|
|-------------------10---9---7---------------------------------0--|
|-----------------------------------------------5-----7--0--------|
|-10-------8--------------------6---------8-----------------------|

|-----------0-----------------0-----------------0-----------------0---------|
|--------6-----6-----------6-----6-----------6-----6-----------6-----6------|
|-----7-----------7-----7-----------7-----7-----------7-----7-----------7---|
|--0-----------------0-----------------8-----------------8-----------------9|
|---------------------------------------------------------------------------|
|---------------------------------------------------------------------------|

|--------0-----------------0-------------------------------------0----------||
|-----6-----6-----------6-----6-----------6----------5--------6-----6-------||
|--7-----------7-----7-----------7-----7----------6--------7-----------7----||
|-----------------9-----------------8--------87--------0--------------------||
|---------------------------------------------------------------------------||
|---------------------------------------------------------------------------||

This is an excellent acoustic song.


albums
tabs

 

1