Search tabs:
Browse artists: 0-9 | A | B | C | D | E | F | G | H | I | J | K | L | M | N | O | P | Q | R | S | T | U | V | W | X | Y | Z
/ KISS / Revenge (1992) / I Just Wanna guitar tab

From: Matt 
Artist:	KISS
Album:	Revenge
Song:	I Just Wanna
guitar tabs and/or chords
URL:	

I JUST WANNA (from the KISS album "REVENGE")

Tuned down 1/2-step (Eb tuning)

Key:
/    = slide up
     = slide down
b    = bend (whole step)
b^   = bend (1/2 step)
b^^  = bend (1 1/2 steps)
pb   = pre-bend
r    = release-bend
t^   = tap with righthand finger
h    = hammer-on
p    = pull-off
~    = Vibrato
*    = Natural Harmonic
#(#) = Trill
**   = Artificial Harmonic
x    = Dead notes (no pitch)
P.M. = Palm mute (- -> underneath indicates which notes)
( )  = Dive w bar
(/)  = Release w bar
Tp   = Tap w plectrum 




Rhythm Fig. 1
                                                                         
Eb|-----------------------------------------0---------------------|
Bb|-----------------------------------------0---------------------|
Gb|--9------9----7----7------2------------------------------------| 
Db|--9------9----7----7------2-------2----------------------------| 
Ab|--7------7----5----5------0-------2----------------------------| 
Eb|-------------------------------3--0----------------------------| 




 
Eb|---------------------------------------------------------------|
Bb|---------------------------------------------------------------|
Gb|--9------9----7----7------2------------------------------------|
Db|--9------9----7----7------2-------2----------------------------|
Ab|--7------7----5----5------0-------2----------------------------|
Eb|-------------------------------3--0----0--3p-0-----------------|




Rhythm Fig. 2
                                                                                            
Eb|---------------------------------------------------------------|
Bb|---------------------------------------------------------------|
Gb|-----2--------2---------2-----7---7--------2--------2--------2-|
Db|-----2--------2---------2-----7---7--------2--------2--------2-|
Ab|------------------------------5---5----------------------------|
Eb|-5~------3~--------2~------------------5~------3~--------2~----|


                                                                         
Eb|---------------------------------------------------------------|
Bb|---------------------------------------------------------------|
Gb|-7--4---4------4------4----4--7--7--4--------------4---------4-|
Db|-7--4---4------4------4----4--7--7--4-----------4---------4----|
Ab|-5--2---2------2------2----2--5--5--2------2----------0--------|
Eb|----------4--2-------------------------------------------------|
	   P.M.			  Let ring - - - - - >

                                                                                 
Eb|---------------------------------------------------------------|
Bb|---------------------------------------------------------------|
Gb|-------4----------4--------------------------------------------|
Db|----4----------4-----------------------------------------------|
Ab|---------------------------------------------------------------|
Eb|-4--------2----------------------------------------------------|
   Let ring - - - - - >



Rhythm Fig. 3a
                                                                                       
Eb|-/3--3--2--0---------/3------3--2--0--0------------------------|
Bb|-/3--3--2--0--3-/5---/3------3--2--0--0------------------------|
Gb|--------------2-/4---------------------------------------------|
Db|---------------------------------------------------------------|
Ab|---------------------------------------------------------------|
Eb|---------------------------------------------------------------|


Rhythm Fig. 3b

Eb|---------------------------------------------------------------|
Bb|---------------------------------------------------------------|
Gb|---------------------------------------------------------------|
Db|-12--12--11-9--7-/9---12--12--11-9--9--------------------------|
Ab|-10--10--9--7--5-/7---10--10--9--7--7--------------------------|
Eb|---------------------------------------------------------------|



Rhythm Fig. 4a
                                                                                     
Eb|---------------------------------0-----------------------------|
Bb|---------------------------------0-----------------------------|
Gb|---------2-----------------------------------------------------|
Db|--0---4-----4--------2--2--------------------------------------|
Ab|---------------0--4-----2--------------------------------------|
Eb|------------------------0--------------------------------------|



Rhythm Fig. 4b
                                                                                              
Eb|------------------------------------------------------------0--|
Bb|------------------------------------------------------------0--|
Gb|-------2------------------2------------------2--------------1--|
Db|-0--4-----4-------0----4-----4-------0----4-----4--------2--2--|
Ab|-------------0------------------0------------------0--4-----2--|
Eb|------------------------------------------------------------0--|




Rhythm Fig. 4c
                                                                         
Eb|---------------------------------------------------------------|
Bb|---------------------------------------------------------------|
Gb|-------2-----------------2-------------------------------------|
Db|-0--4----4---------0--4----4--------2--------------------------|
Ab|------------0-----------------0--4-----------------------------|
Eb|---------------------------------------------------------------|
   < - - 3X - - >


 
                                                                                 
Rhythm Fig. 4d
                                                                                       
Eb|---------------------------------------------------------------|
Bb|---------------------------------------------------------------|
Gb|---------2--------------------2-----2--2-----------------------|
Db|--0---4-----4---------0----4-----4--2--2-----------------------|
Ab|---------------0--------------------0--0-----------------------|
Eb|---------------------------------------------------------------|





Rhythm Fig. 5
                                                                                    
Eb|---------------------------------------------------------------|
Bb|---------------------------------------------------------------|
Gb|--4----------2-------2-----2--4------------7----7--6--4--2--4--|
Db|--4----------2-------2-----2--4------------7----7--6--4--2--4--|
Ab|--2---------------4-----4--------------------------------------|
Eb|---------------------------------------------------------------|
	    < - - - - - - - - - - - 2X - - - - - - - - - - - >

                                                                                   

Eb|---------------------------------------------------------------|
Bb|---------------------------------------------------------------|
Gb|-2-----2-----2--4------2------2-----2--4--4--4-----------------|
Db|-2-----2-----2--4------2------2-----2--4--4--4-----------------|
Ab|----4-----4----------------4-----4--------2--2-----------------|
Eb|---------------------------------------------------------------|
   < - - - 2X - - - >


 


Rhythm Fig. 6a (two guitars arranged for one)
                                                                                   
Eb|--9--------7--------5-------5----------------------------------|
Bb|--10-------9--------7-------5--------7-------9--------5--------|
Gb|-------------------------------------7-------9--------6--------|
Db|---------------------------------------------------------------|
Ab|---------------------------------------------------------------|
Eb|---------------------------------------------------------------|


                                                                                       
Eb|--9--------7--------5-------5--------5-------7/---10-----9-----|
Bb|--10-------9--------7-------5--------7-------9/---12-----10----|
Gb|---------------------------------------------------------------|
Db|---------------------------------------------------------------|
Ab|---------------------------------------------------------------|
Eb|---------------------------------------------------------------|



Rhythm Fig. 6b
                                                                           
Eb|---------------------------------------------------------------|
Bb|-------2---------2----------3---------2----------3----------5--|
Gb|----2---------2----------2---------2----------2----------4-----|
Db|---------------------------------------------------------------|
Ab|-0------------------------------0------------------------------|
Eb|-----------4----------2--------------------2----------4--------|


                                                                          
Eb|--------------0------------------------------------------------|
Bb|-----------2-----------------2---------2----------3---------2--|
Gb|--------2-----------------2---------2----------2---------2-----|
Db|-----2---------------------------------------------------------|
Ab|--0--------------------0------------------------------0--------|
Eb|---------------------------------4----------2------------------|


                                                                           
Eb|---------------------------------------------------------------|
Bb|-------3---------5-----------------------6~---------8~---------|
Gb|----2---------4-------2-----------------------5----------7-----|
Db|----------------------2----2--2--2--2--2---------7----------9--|
Ab|----------------------0----0--0--0--0--0-----------------------|
Eb|-2---------4---------------------------------------------------|
		        P.M. - - - - >


Rhythm Fig. 7
                                                                         
Eb|---------------------------------------------------------------|
Bb|---------------------------------------------------------------|
Gb|-9----9-------------9--9----9-------------9--9----9----7----7--|
Db|-9----9----x--x--x--9--9----9----x--x--x--9--9----9----7----7--|
Ab|-7----7----x--x--x--7--7----7----x--x--x--7--7----7----5----5--|
Eb|---------------------------------------------------------------|


                                                                         
Eb|--------------0------------------------------------------------|
Bb|--------------0------------------------------------------------|
Gb|-2------------------9----9-------------9--9----9-------------9-|
Db|-2------2-----------9----9----x--x--x--9--9----9----x--x--x--9-|
Ab|-0------2-----------7----7----x--x--x--7--7----7----x--x--x--7-|
Eb|-----3--0------------------------------------------------------|


                                               
Eb|---------------------------------------------------------------|
Bb|---------------------------------------------------------------|
Gb|--9----9----7----7------2--------------------------------------|
Db|--9----9----7----7------2-------2------------------------------|
Ab|--7----7----5----5------0-------2------------------------------|
Eb|-----------------------------3--0----0--3p-0-------------------|



Rhythm Fig. 8

Eb|---------------------------------------------------------------|
Bb|---------------------------------------------------------------|
Gb|--9 -----------------------------------------------------------|
Db|--9 -----------------------------------------------------------|
Ab|--7 -----------------------------------------------------------|
Eb|---------------------------------------------------------------|



Rhythm Fig. 9

Eb|---------------------------------------------------------------|
Bb|---------------------------------------------------------------|
Gb|---------------------------------------------------------------|
Db|--2--0---------------2----2------------------------------------|
Ab|--------2--1--0------2----2------------------------------------|
Eb|-----------------3---0----0------------------------------------|



Riff 1 (with slide)

Eb|---------------------------------------------------------------|
Bb|---------------------------------------------------------------|
Gb|---/14 --------------------------------------------------------|
Db|---/14 --------------------------------------------------------|
Ab|---------------------------------------------------------------|
Eb|---------------------------------------------------------------|


Riff 2

Eb|--5~--------7~-------------------------------------------------|
Bb|------6----------8---------------------------------------------|
Gb|---------5----------7------------------------------------------|
Db|---------------------------------------------------------------|
Ab|---------------------------------------------------------------|
Eb|---------------------------------------------------------------|



Riff 3

Eb|---------------------------------------------------------------|
Bb|---------------------------------------------------------------|
Gb|---------------------------------------------------------------|
Db|---------------7~-6--------------------------------------------|
Ab|--/7--7--9--9--------7~----------------------------------------|
Eb|---------------------------------------------------------------|
   < - - - - 2x - - - - >


Riff 4 (with slide)

Eb|--12 ----------------------------------------------------------|
Bb|--12 ----------------------------------------------------------|
Gb|---------------------------------------------------------------|
Db|---------------------------------------------------------------|
Ab|---------------------------------------------------------------|
Eb|---------------------------------------------------------------|



Solo (partially with slide)

Eb|--/7-( /)( /)( /) ---------------------------------------------|
Bb|--/7-( /)( /)( /) -------------------------------/21~----------|
Gb|------------------------/7-7-7-7-7 4-2-2/4-------/21~----------|
Db|---------------------------------------------------------------|
Ab|---------------------------------------------------------------|
Eb|---------------------------------------------------------------|



Eb|--10---10---10------------7h-10p-7------7h-10p-7---------------|
Bb|--13b-------13b~----7h-10----------10------------10--7---------|
Gb|--------------------------------------------------------9p-7~--|
Db|---------------------------------------------------------------|
Ab|---------------------------------------------------------------|
Eb|---------------------------------------------------------------|
    <- 4x ->		         <- - 4x - ->



Eb|---------------------------------------------------------------|
Bb|--7 ------------------------------10h-12p-10h--12~-------------|
Gb|--7 ------------7----------9h-11-------------------------------|
Db|-----------7-9----9~-------------------------------------------|
Ab|-------7-9-----------------------------------------------------|
Eb|---------------------------------------------------------------|
         P.M. - - ->


Eb|----------------------------19---------------------------------|
Bb|--17b-17b-17b-17b-17r-15-15------------------------------------|
Gb|---------------------------------------------------------------|
Db|---------------------------------------------------------------|
Ab|---------------------------------------------------------------|
Eb|---------------------------------------------------------------|
     Hold bend - - ->



KISS albums
1998 Psycho Circus
1996 MTV Unplugged
1992 Revenge
1989 Hot In The Shade
1987 Crazy Nights
1985 Asylum
1984 Animalize
1983 Lick It Up
1982 Creatures Of The Night
1982 Killers
1981 Music from 'The Elder'
1980 Kiss Unmasked
1979 Dynasty
1978 Paul Stanley
1978 Peter Criss
1978 Ace Frehley
1977 Love Gun
1976 Rock and Roll Over
1976 Destroyer
1975 Dressed To Kill
1974 Hotter Than Hell
1974 Kiss
Revenge tabs
01Unholy tabbass tab
02Take It Off tabbass tab
03Tough Love tabbass tab
04Spit tabbass tab
06Domino tabbass tab
07Heart Of Chrome tabbass tab
08Thou Shalt Not tabbass tab
09Every Time I Look At You tabbass tab
10Paralyzed tabbass tab
11I Just Wanna tabbass tab
12Carr Jam 1981 tabbass tab

 

1