Search tabs:
Browse artists: 0-9 | A | B | C | D | E | F | G | H | I | J | K | L | M | N | O | P | Q | R | S | T | U | V | W | X | Y | Z
/ KISS / Rock and Roll Over (1976) / See You In Your Dreams guitar tab

Kiss - See You In Your Dreams
Submitted By: fullyhardenedpunk
EMail: fullyhardenedpunk@hotmail.com

Eb Tuning

Key:
/    = slide up
\    = slide down
b    = bend (whole step)
b^   = bend (1/2 step)
b^^  = bend (1 1/2 steps)
pb   = pre-bend
r    = release-bend
r^   = release-bend half-step
h^   = hammer-on
p^   = pull-off
~    = Vibrato
*    = Natural Harmonic
#(#) = Trill
**   = Artificial Harmonic
x    = Muted String (Palm Muting)
X    = Muted String (Fretboard Muting)


Rhythm Fig. 1

                       end. 1
     G A      D5  E5     E5 Eb5 D5
Eb|-------------------|--------------------------------|
Bb|--8/10-------------|--------------------------------|
Gb|--7/9------7---9---|--9--8---7----------------------|
Db|--5/7------7---9---|--9--8---7----------------------|
Ab|-----------5---7---|--7--6---5----------------------|
Eb|-------------------|--------------------------------|


Rhythm Fig. 1a

Eb|----------------------------------------------------|
Bb|----------------------------------------------------|
Gb|--2-------------------------------------------------|
Db|--2-------------------------------------------------|
Ab|--0-------------------------------------------------|
Eb|----------------------------------------------------|


Rhythm Fig. 2

     D5  D6                C5    B5    G5  G    D5
Eb|----------------------------------------------------|
Bb|----------------------------------------------------|
Gb|----------------------------------------7-7--7-7----|
Db|--7-7-9-7-9-7-7-9-7-9---5-5---4---------5-5--7-7----|
Ab|--5-5-5-5-5-5-5-5-5-5---3-3---2--0--5--------5-5----|
Eb|------------------------------------3---------------|

     D5  D6                C5 B5 A5 G5 A5 C5 D5    D
Eb|----------------------------------------------------|
Bb|----------------------------------------------------|
Gb|---------------------------------------------7--7-7-|
Db|--7-7-9-7-9-7-7-9-7-9---5--4--2-----2--5--7--7--5-7-|
Ab|--5-5-5-5-5-5-5-5-5-5---3--2--0--5--0--3--5--5----5-|
Eb|---------------------------------3------------------|



Rhythm Fig. 3

     G A      D5  E5    G A   C5   D5   F5   G5
Eb|----------------------------------------------------|
Bb|--8/10---------------8/10---------------------------|
Gb|--7/9------7---9-----7/9---5----7----10---12--------|
Db|--5/7------7---9-----5/7---5----7----10---12--------|
Ab|-----------5---7-----------3----5----8----10--------|
Eb|----------------------------------------------------|


Rhythm Fig. 3a

Eb|----------------------------------------------------|
Bb|----------------------------------------------------|
Gb|--x--x-x--------------------------------------------|
Db|--x--x-x--------------------------------------------|
Ab|--x--x-x--------------------------------------------|
Eb|----------------------------------------------------|
    <--8x->


Rhythm Fig. 4

     A5  A6                 D5  E5    G5      D5
Eb|----------------------------------------------------|
Bb|----------------------------------------------------|
Gb|-------------------------7---9-------------7--------|
Db|--2-2-4-2-4-2-2-4-2-4----7---9-----5-5-----7--------|
Ab|--0-0-0-0-0-0-0-0-0-0----5---7-----5-5-----5--------|
Eb|-----------------------------------3-3--------------|

     A5  A6                 D5  E5    C5  D5  G5    F5
Eb|----------------------------------------------------|
Bb|----------------------------------------------------|
Gb|-------------------------7---9-----5---7---10----12-|
Db|--2-2-4-2-4-2-2-4-2-4----7---9-----5---7---10----12-|
Ab|--0-0-0-0-0-0-0-0-0-0----5---7-----3---5---8-----10-|
Eb|----------------------------------------------------|


Rhythm Fig. 4a

     G A      D5  E5 G5  D5 G A   C5   D5   F5   G5
Eb|----------------------------------------------------|
Bb|--8/10-------------------8/10-----------------------|
Gb|--7/9------7---9------7--7/9---5----7----10---12----|
Db|--5/7------7---9--5-5-7--5/7---5----7----10---12----|
Ab|-----------5---7--5-5-5--------3----5----8----10----|
Eb|------------------3-3-------------------------------|

Riff. 1

Eb|--15p^14----------15p^14---------13p^12-------------|
Bb|---------15--------------15-------------13----------|
Gb|------------14--------------14-------------12-------|
Db|----------------------------------------------------|
Ab|----------------------------------------------------|
Eb|----------------------------------------------------|


Riff. 2

Eb|----------------------------------------------------|
Bb|----------------------------------------------------|
Gb|----------------------------------------------------|
Db|---5-4-2--------------------------------------------|
Ab|----------5-4-2-------------------------------------|
Eb|----------------------------------------------------|


Solo

Eb|-----17p^12----16p^12-----12------------------------|
Bb|--12--------12---------12------14b^-r14-12----14-12-|
Gb|-------------------------------14b^-r14-12-14-14-12-|
Db|-------------------------------------------14-------|
Ab|----------------------------------------------------|
Eb|----------------------------------------------------|
     <--------4x------->


Eb|------------------------------17p^12----16p^12----12|
Bb|-14-12--15b-r15p^12-15b~---12--------12--------12---|
Gb|-14-12----------------------------------------------|
Db|----------------------------------------------------|
Ab|----------------------------------------------------|
Eb|----------------------------------------------------|
                              <--------4x------->


Eb|--------------------------------7-------------------|
Bb|-14b-r14-12----14-12----------7-7-------------------|
Gb|-14b-r14-12-14-14-12-14----9b-------9b-r9p^7--------|
Db|------------14-------14-----------------------9-----|
Ab|----------------------------------------------------|
Eb|----------------------------------------------------|


Eb|----------------------------------------------------|
Bb|----------------------------------------------------|
Gb|----9b-r9p^7----------------------------------------|
Db|-------------9~-------------------------------------|
Ab|----------------------------------------------------|
Eb|----------------------------------------------------|


SEE YOU IN YOUR DREAMS - Gene Simmons

[Rhythm Fig. 1]
[Rhythm Fig. 1 w/end. 1]

[Rhythm Fig. 2]
The party's over, and baby's in the corner
She's all alone for the night
You pick up the phone, you want to go home
Well dry your eyes, it's alright, it's alright

[Rhythm Fig. 3] w/[Rhythm Fig. 3a]
See you, feel you in your dreams tonight
See you, feel you in your dreams tonight, dreams tonight

[Rhythm Fig. 2] w/[Riff. 1(2x)
When you're in the room, you're home too soon
You can't get me out of your mind
And you get in bed, you cover your head
My letter to you is signed
And this is what I'm sayin'

[Rhythm Fig. 4] w/[Rhythm Fig. 4a] w/[Riff. 2]
See you, feel you in your dreams tonight
See you, feel you in your dreams tonight, dreams tonight

[Solo] w/[Rhythm Fig. 4]

[Rhythm Fig. 1] w/[Rhythm Fig. 1a] w/[Rhythm Fig. 3a](3x)
See you, see you, feel you in your dreams tonight, dreams tonight
See you, see you, feel you in your dreams tonight, dreams tonight
See you, see you, feel you in your dreams tonight, dreams tonight
[Rhythm Fig. 3] w/[Rhythm Fig. 3a]
See you, see you, feel you in your dreams tonight, dreams tonight

[Rhythm Fig. 4] w/[Rhythm Fig. 4a] w/[Riff. 2](Until fade)
See you, see you, feel you in your dreams tonight
See you, see you, feel you in your dreams tonight, dreams tonight
See you, see you, feel you in your dreams tonight
See you, see you, feel you in your dreams tonight, dreams tonight
See you, see you, feel you in your dreams tonight
See you, see you, feel you in your dreams tonight, dreams tonight


KISS albums
1998 Psycho Circus
1996 MTV Unplugged
1992 Revenge
1989 Hot In The Shade
1987 Crazy Nights
1985 Asylum
1984 Animalize
1983 Lick It Up
1982 Creatures Of The Night
1982 Killers
1981 Music from 'The Elder'
1980 Kiss Unmasked
1979 Dynasty
1978 Paul Stanley
1978 Peter Criss
1978 Ace Frehley
1977 Love Gun
1976 Rock and Roll Over
1976 Destroyer
1975 Dressed To Kill
1974 Hotter Than Hell
1974 Kiss
Rock and Roll Over tabs
01I Want You tabbass tab
02Take Me tabbass tab
03Calling Dr. Love tabbass tab
04Ladies Room tabbass tab
05Baby Driver tabbass tab
06Love 'Em And Leave 'Em tabbass tab
07Mr. Speed tabbass tab
08See You In Your Dreams tabbass tab
09Hard Luck Woman tabbass tab
10Makin' Love tabbass tab

 

1