Search tabs:
Browse artists: 0-9 | A | B | C | D | E | F | G | H | I | J | K | L | M | N | O | P | Q | R | S | T | U | V | W | X | Y | Z
/ / / guitar tab

                                   Fly Away                                     


                                                                   Lenny Kravitz
Electric Guitar
Tab by www.Guitarnet.de



                                                        
E||------------------|---------------------------------|
B||------------------|--2--2-2-2-----------5-5-5-5-x-x-|
G||------------------|--2--2-2-2-x-4-x-4/5-5-5-5-5-x-x-|
D||------------------|--2--2-2-2-x-4-x-4/5-5-5-5-5-x-x-|
A||------------------|--0--0-0-0-x-2-x-2/3-3-3-3-3-x-x-|
E||------------------|---------------------------------|


                                                                   
--------------------------------|---------------------------------|
--3--3-3-3-3-x-x-7--7-7-7h8-x-x-|--2--2-2-2-----------5-5-5-5-x-x-|
--4--4-4-4-4-x-x-7--7-7-7-7-x-x-|--2--2-2-2-x-4-x-4/5-5-5-5-5-x-x-|
--5--5-5-5-5-x-x-7--7-7-7-7-x-x-|--2--2-2-2-x-4-x-4/5-5-5-5-5-x-x-|
--5--5-5-5-5-x-x-5--5-5-5-5-x-x-|--0--0-0-0-x-2-x-2/3-3-3-3-3-x-x-|
--3--3-3-3-3-x-x----------------|---------------------------------|


                                                                   
--------------------------------|---------------------------------|
--3--3-3-3-3-x-x-7--7-7-7h8-x-x-|--2--2-2-2-----------5-5-5-5-x-x-|
--4--4-4-4-4-x-x-7--7-7-7-7-x-x-|--2--2-2-2-x-4-x-4/5-5-5-5-5-x-x-|
--5--5-5-5-5-x-x-7--7-7-7-7-x-x-|--2--2-2-2-x-4-x-4/5-5-5-5-5-x-x-|
--5--5-5-5-5-x-x-5--5-5-5-5-x-x-|--0--0-0-0-x-2-x-2/3-3-3-3-3-x-x-|
--3--3-3-3-3-x-x----------------|---------------------------------|


                                                                   
--------------------------------|---------------------------------|
--3--3-3-3-3-x-x-7--7-7-7h8-x-x-|--2--2-2-2-----------5-5-5-5-x-x-|
--4--4-4-4-4-x-x-7--7-7-7-7-x-x-|--2--2-2-2-x-4-x-4/5-5-5-5-5-x-x-|
--5--5-5-5-5-x-x-7--7-7-7-7-x-x-|--2--2-2-2-x-4-x-4/5-5-5-5-5-x-x-|
--5--5-5-5-5-x-x-5--5-5-5-5-x-x-|--0--0-0-0-x-2-x-2/3-3-3-3-3-x-x-|
--3--3-3-3-3-x-x----------------|---------------------------------|


                                                                       
--------------------------------|------------------|------------------|
--3--3-3-3-3-x-x-7--7-7-7h8-x-x-|------------------|------------------|
--4--4-4-4-4-x-x-7--7-7-7-7-x-x-|------------------|------------------|
--5--5-5-5-5-x-x-7--7-7-7-7-x-x-|------------------|------------------|
--5--5-5-5-5-x-x-5--5-5-5-5-x-x-|------------------|------------------|
--3--3-3-3-3-x-x----------------|------------------|------------------|


                                                                            
------------------|------------------|------------------|------------------|
------------------|------------------|------------------|------------------|
------------------|------------------|------------------|------------------|
------------------|------------------|------------------|------------------|
------------------|------------------|------------------|------------------|
------------------|------------------|------------------|------------------|


                                                                        
------------------|------------------|---------------------------------|
------------------|------------------|--2--2-2-2-----------5-5-5-5-x-x-|
------------------|------------------|--2--2-2-2-x-4-x-4/5-5-5-5-5-x-x-|
------------------|------------------|--2--2-2-2-x-4-x-4/5-5-5-5-5-x-x-|
------------------|------------------|--0--0-0-0-x-2-x-2/3-3-3-3-3-x-x-|
------------------|------------------|---------------------------------|


                                                                   
--------------------------------|---------------------------------|
--3--3-3-3-3-x-x-7--7-7-7h8-x-x-|--2--2-2-2-----------5-5-5-5-x-x-|
--4--4-4-4-4-x-x-7--7-7-7-7-x-x-|--2--2-2-2-x-4-x-4/5-5-5-5-5-x-x-|
--5--5-5-5-5-x-x-7--7-7-7-7-x-x-|--2--2-2-2-x-4-x-4/5-5-5-5-5-x-x-|
--5--5-5-5-5-x-x-5--5-5-5-5-x-x-|--0--0-0-0-x-2-x-2/3-3-3-3-3-x-x-|
--3--3-3-3-3-x-x----------------|---------------------------------|


                                                                   
--------------------------------|---------------------------------|
--3--3-3-3-3-x-x-7--7-7-7h8-x-x-|--2--2-2-2-----------5-5-5-5-x-x-|
--4--4-4-4-4-x-x-7--7-7-7-7-x-x-|--2--2-2-2-x-4-x-4/5-5-5-5-5-x-x-|
--5--5-5-5-5-x-x-7--7-7-7-7-x-x-|--2--2-2-2-x-4-x-4/5-5-5-5-5-x-x-|
--5--5-5-5-5-x-x-5--5-5-5-5-x-x-|--0--0-0-0-x-2-x-2/3-3-3-3-3-x-x-|
--3--3-3-3-3-x-x----------------|---------------------------------|


                                                                   
--------------------------------|---------------------------------|
--3--3-3-3-3-x-x-7--7-7-7h8-x-x-|--2--2-2-2-----------5-5-5-5-x-x-|
--4--4-4-4-4-x-x-7--7-7-7-7-x-x-|--2--2-2-2-x-4-x-4/5-5-5-5-5-x-x-|
--5--5-5-5-5-x-x-7--7-7-7-7-x-x-|--2--2-2-2-x-4-x-4/5-5-5-5-5-x-x-|
--5--5-5-5-5-x-x-5--5-5-5-5-x-x-|--0--0-0-0-x-2-x-2/3-3-3-3-3-x-x-|
--3--3-3-3-3-x-x----------------|---------------------------------|


                                                                   
--------------------------------|---------------------------------|
--3--3-3-3-3-x-x-7--7-7-7h8-x-x-|--2--2-2-2-----------5-5-5-5-x-x-|
--4--4-4-4-4-x-x-7--7-7-7-7-x-x-|--2--2-2-2-x-4-x-4/5-5-5-5-5-x-x-|
--5--5-5-5-5-x-x-7--7-7-7-7-x-x-|--2--2-2-2-x-4-x-4/5-5-5-5-5-x-x-|
--5--5-5-5-5-x-x-5--5-5-5-5-x-x-|--0--0-0-0-x-2-x-2/3-3-3-3-3-x-x-|
--3--3-3-3-3-x-x----------------|---------------------------------|


                                                                   
--------------------------------|---------------------------------|
--3--3-3-3-3-x-x-7--7-7-7h8-x-x-|--2--2-2-2-----------5-5-5-5-x-x-|
--4--4-4-4-4-x-x-7--7-7-7-7-x-x-|--2--2-2-2-x-4-x-4/5-5-5-5-5-x-x-|
--5--5-5-5-5-x-x-7--7-7-7-7-x-x-|--2--2-2-2-x-4-x-4/5-5-5-5-5-x-x-|
--5--5-5-5-5-x-x-5--5-5-5-5-x-x-|--0--0-0-0-x-2-x-2/3-3-3-3-3-x-x-|
--3--3-3-3-3-x-x----------------|---------------------------------|


                                                                   
--------------------------------|---------------------------------|
--3--3-3-3-3-x-x-7--7-7-7h8-x-x-|--2--2-2-2-----------5-5-5-5-x-x-|
--4--4-4-4-4-x-x-7--7-7-7-7-x-x-|--2--2-2-2-x-4-x-4/5-5-5-5-5-x-x-|
--5--5-5-5-5-x-x-7--7-7-7-7-x-x-|--2--2-2-2-x-4-x-4/5-5-5-5-5-x-x-|
--5--5-5-5-5-x-x-5--5-5-5-5-x-x-|--0--0-0-0-x-2-x-2/3-3-3-3-3-x-x-|
--3--3-3-3-3-x-x----------------|---------------------------------|


                                                                   
--------------------------------|---------------------------------|
--3--3-3-3-3-x-x-7--7-7-7h8-x-x-|--2--2-2-2-----------5-5-5-5-x-x-|
--4--4-4-4-4-x-x-7--7-7-7-7-x-x-|--2--2-2-2-x-4-x-4/5-5-5-5-5-x-x-|
--5--5-5-5-5-x-x-7--7-7-7-7-x-x-|--2--2-2-2-x-4-x-4/5-5-5-5-5-x-x-|
--5--5-5-5-5-x-x-5--5-5-5-5-x-x-|--0--0-0-0-x-2-x-2/3-3-3-3-3-x-x-|
--3--3-3-3-3-x-x----------------|---------------------------------|


                                                                   
--------------------------------|---------------------------------|
--3--3-3-3-3-x-x-7--7-7-7h8-x-x-|--2--2-2-2-----------5-5-5-5-x-x-|
--4--4-4-4-4-x-x-7--7-7-7-7-x-x-|--2--2-2-2-x-4-x-4/5-5-5-5-5-x-x-|
--5--5-5-5-5-x-x-7--7-7-7-7-x-x-|--2--2-2-2-x-4-x-4/5-5-5-5-5-x-x-|
--5--5-5-5-5-x-x-5--5-5-5-5-x-x-|--0--0-0-0-x-2-x-2/3-3-3-3-3-x-x-|
--3--3-3-3-3-x-x----------------|---------------------------------|


                                                                   
--------------------------------|---------------------------------|
--3--3-3-3-3-x-x-7--7-7-7h8-x-x-|--2--2-2-2-----------5-5-5-5-x-x-|
--4--4-4-4-4-x-x-7--7-7-7-7-x-x-|--2--2-2-2-x-4-x-4/5-5-5-5-5-x-x-|
--5--5-5-5-5-x-x-7--7-7-7-7-x-x-|--2--2-2-2-x-4-x-4/5-5-5-5-5-x-x-|
--5--5-5-5-5-x-x-5--5-5-5-5-x-x-|--0--0-0-0-x-2-x-2/3-3-3-3-3-x-x-|
--3--3-3-3-3-x-x----------------|---------------------------------|


                                                                   
--------------------------------|---------------------------------|
--3--3-3-3-3-x-x-7--7-7-7h8-x-x-|--2--2-2-2-----------5-5-5-5-x-x-|
--4--4-4-4-4-x-x-7--7-7-7-7-x-x-|--2--2-2-2-x-4-x-4/5-5-5-5-5-x-x-|
--5--5-5-5-5-x-x-7--7-7-7-7-x-x-|--2--2-2-2-x-4-x-4/5-5-5-5-5-x-x-|
--5--5-5-5-5-x-x-5--5-5-5-5-x-x-|--0--0-0-0-x-2-x-2/3-3-3-3-3-x-x-|
--3--3-3-3-3-x-x----------------|---------------------------------|


                                                                   
--------------------------------|---------------------------------|
--3--3-3-3-3-x-x-7--7-7-7h8-x-x-|--2--2-2-2-----------5-5-5-5-x-x-|
--4--4-4-4-4-x-x-7--7-7-7-7-x-x-|--2--2-2-2-x-4-x-4/5-5-5-5-5-x-x-|
--5--5-5-5-5-x-x-7--7-7-7-7-x-x-|--2--2-2-2-x-4-x-4/5-5-5-5-5-x-x-|
--5--5-5-5-5-x-x-5--5-5-5-5-x-x-|--0--0-0-0-x-2-x-2/3-3-3-3-3-x-x-|
--3--3-3-3-3-x-x----------------|---------------------------------|


                                                                       
--------------------------------|------------------|------------------|
--3--3-3-3-3-x-x-7--7-7-7h8-x-x-|------------------|------------------|
--4--4-4-4-4-x-x-7--7-7-7-7-x-x-|------------------|------------------|
--5--5-5-5-5-x-x-7--7-7-7-7-x-x-|------------------|------------------|
--5--5-5-5-5-x-x-5--5-5-5-5-x-x-|------------------|------------------|
--3--3-3-3-3-x-x----------------|------------------|------------------|


                                                                            
------------------|------------------|------------------|------------------|
------------------|------------------|------------------|------------------|
------------------|------------------|------------------|------------------|
------------------|------------------|------------------|------------------|
------------------|------------------|------------------|------------------|
------------------|------------------|------------------|------------------|


                                                                        
------------------|------------------|---------------------------------|
------------------|------------------|--2--2-2-2-----------5-5-5-5-x-x-|
------------------|------------------|--2--2-2-2-x-4-x-4/5-5-5-5-5-x-x-|
------------------|------------------|--2--2-2-2-x-4-x-4/5-5-5-5-5-x-x-|
------------------|------------------|--0--0-0-0-x-2-x-2/3-3-3-3-3-x-x-|
------------------|------------------|---------------------------------|


                                                                   
--------------------------------|---------------------------------|
--3--3-3-3-3-x-x-7--7-7-7h8-x-x-|--2--2-2-2-----------5-5-5-5-x-x-|
--4--4-4-4-4-x-x-7--7-7-7-7-x-x-|--2--2-2-2-x-4-x-4/5-5-5-5-5-x-x-|
--5--5-5-5-5-x-x-7--7-7-7-7-x-x-|--2--2-2-2-x-4-x-4/5-5-5-5-5-x-x-|
--5--5-5-5-5-x-x-5--5-5-5-5-x-x-|--0--0-0-0-x-2-x-2/3-3-3-3-3-x-x-|
--3--3-3-3-3-x-x----------------|---------------------------------|


                                                                   
--------------------------------|---------------------------------|
--3--3-3-3-3-x-x-7--7-7-7h8-x-x-|--2--2-2-2-----------5-5-5-5-x-x-|
--4--4-4-4-4-x-x-7--7-7-7-7-x-x-|--2--2-2-2-x-4-x-4/5-5-5-5-5-x-x-|
--5--5-5-5-5-x-x-7--7-7-7-7-x-x-|--2--2-2-2-x-4-x-4/5-5-5-5-5-x-x-|
--5--5-5-5-5-x-x-5--5-5-5-5-x-x-|--0--0-0-0-x-2-x-2/3-3-3-3-3-x-x-|
--3--3-3-3-3-x-x----------------|---------------------------------|


                                                                   
--------------------------------|---------------------------------|
--3--3-3-3-3-x-x-7--7-7-7h8-x-x-|--2--2-2-2-----------5-5-5-5-x-x-|
--4--4-4-4-4-x-x-7--7-7-7-7-x-x-|--2--2-2-2-x-4-x-4/5-5-5-5-5-x-x-|
--5--5-5-5-5-x-x-7--7-7-7-7-x-x-|--2--2-2-2-x-4-x-4/5-5-5-5-5-x-x-|
--5--5-5-5-5-x-x-5--5-5-5-5-x-x-|--0--0-0-0-x-2-x-2/3-3-3-3-3-x-x-|
--3--3-3-3-3-x-x----------------|---------------------------------|


                                                                   
--------------------------------|---------------------------------|
--3--3-3-3-3-x-x-7--7-7-7h8-x-x-|--2--2-2-2-----------5-5-5-5-x-x-|
--4--4-4-4-4-x-x-7--7-7-7-7-x-x-|--2--2-2-2-x-4-x-4/5-5-5-5-5-x-x-|
--5--5-5-5-5-x-x-7--7-7-7-7-x-x-|--2--2-2-2-x-4-x-4/5-5-5-5-5-x-x-|
--5--5-5-5-5-x-x-5--5-5-5-5-x-x-|--0--0-0-0-x-2-x-2/3-3-3-3-3-x-x-|
--3--3-3-3-3-x-x----------------|---------------------------------|


                                                                   
--------------------------------|---------------------------------|
--3--3-3-3-3-x-x-7--7-7-7h8-x-x-|--2--2-2-2-----------5-5-5-5-x-x-|
--4--4-4-4-4-x-x-7--7-7-7-7-x-x-|--2--2-2-2-x-4-x-4/5-5-5-5-5-x-x-|
--5--5-5-5-5-x-x-7--7-7-7-7-x-x-|--2--2-2-2-x-4-x-4/5-5-5-5-5-x-x-|
--5--5-5-5-5-x-x-5--5-5-5-5-x-x-|--0--0-0-0-x-2-x-2/3-3-3-3-3-x-x-|
--3--3-3-3-3-x-x----------------|---------------------------------|


                                                                   
--------------------------------|---------------------------------|
--3--3-3-3-3-x-x-7--7-7-7h8-x-x-|--2--2-2-2-----------5-5-5-5-x-x-|
--4--4-4-4-4-x-x-7--7-7-7-7-x-x-|--2--2-2-2-x-4-x-4/5-5-5-5-5-x-x-|
--5--5-5-5-5-x-x-7--7-7-7-7-x-x-|--2--2-2-2-x-4-x-4/5-5-5-5-5-x-x-|
--5--5-5-5-5-x-x-5--5-5-5-5-x-x-|--0--0-0-0-x-2-x-2/3-3-3-3-3-x-x-|
--3--3-3-3-3-x-x----------------|---------------------------------|


                                                                   
--------------------------------|---------------------------------|
--3--3-3-3-3-x-x-7--7-7-7h8-x-x-|--2--2-2-2-----------5-5-5-5-x-x-|
--4--4-4-4-4-x-x-7--7-7-7-7-x-x-|--2--2-2-2-x-4-x-4/5-5-5-5-5-x-x-|
--5--5-5-5-5-x-x-7--7-7-7-7-x-x-|--2--2-2-2-x-4-x-4/5-5-5-5-5-x-x-|
--5--5-5-5-5-x-x-5--5-5-5-5-x-x-|--0--0-0-0-x-2-x-2/3-3-3-3-3-x-x-|
--3--3-3-3-3-x-x----------------|---------------------------------|


                                                                   
--------------------------------|---------------------------------|
--3--3-3-3-3-x-x-7--7-7-7h8-x-x-|--2--2-2-2-----------5-5-5-5-x-x-|
--4--4-4-4-4-x-x-7--7-7-7-7-x-x-|--2--2-2-2-x-4-x-4/5-5-5-5-5-x-x-|
--5--5-5-5-5-x-x-7--7-7-7-7-x-x-|--2--2-2-2-x-4-x-4/5-5-5-5-5-x-x-|
--5--5-5-5-5-x-x-5--5-5-5-5-x-x-|--0--0-0-0-x-2-x-2/3-3-3-3-3-x-x-|
--3--3-3-3-3-x-x----------------|---------------------------------|


                                                                   
--------------------------------|---------------------------------|
--3--3-3-3-3-x-x-7--7-7-7h8-x-x-|--2--2-2-2-----------5-5-5-5-x-x-|
--4--4-4-4-4-x-x-7--7-7-7-7-x-x-|--2--2-2-2-x-4-x-4/5-5-5-5-5-x-x-|
--5--5-5-5-5-x-x-7--7-7-7-7-x-x-|--2--2-2-2-x-4-x-4/5-5-5-5-5-x-x-|
--5--5-5-5-5-x-x-5--5-5-5-5-x-x-|--0--0-0-0-x-2-x-2/3-3-3-3-3-x-x-|
--3--3-3-3-3-x-x----------------|---------------------------------|


                                                                   
--------------------------------|---------------------------------|
--3--3-3-3-3-x-x-7--7-7-7h8-x-x-|--2--2-2-2-----------5-5-5-5-x-x-|
--4--4-4-4-4-x-x-7--7-7-7-7-x-x-|--2--2-2-2-x-4-x-4/5-5-5-5-5-x-x-|
--5--5-5-5-5-x-x-7--7-7-7-7-x-x-|--2--2-2-2-x-4-x-4/5-5-5-5-5-x-x-|
--5--5-5-5-5-x-x-5--5-5-5-5-x-x-|--0--0-0-0-x-2-x-2/3-3-3-3-3-x-x-|
--3--3-3-3-3-x-x----------------|---------------------------------|


                                                                   
--------------------------------|---------------------------------|
--3--3-3-3-3-x-x-7--7-7-7h8-x-x-|--2--2-2-2-----------5-5-5-5-x-x-|
--4--4-4-4-4-x-x-7--7-7-7-7-x-x-|--2--2-2-2-x-4-x-4/5-5-5-5-5-x-x-|
--5--5-5-5-5-x-x-7--7-7-7-7-x-x-|--2--2-2-2-x-4-x-4/5-5-5-5-5-x-x-|
--5--5-5-5-5-x-x-5--5-5-5-5-x-x-|--0--0-0-0-x-2-x-2/3-3-3-3-3-x-x-|
--3--3-3-3-3-x-x----------------|---------------------------------|


                                                     
--------------------------------|------------------||
--3--3-3-3-3-x-x-7--7-7-7h8-x-x-|------------------||
--4--4-4-4-4-x-x-7--7-7-7-7-x-x-|------------------||
--5--5-5-5-5-x-x-7--7-7-7-7-x-x-|------------------||
--5--5-5-5-5-x-x-5--5-5-5-5-x-x-|------------------||
--3--3-3-3-3-x-x----------------|------------------||




albums
tabs

 

1