Search tabs:
Browse artists: 0-9 | A | B | C | D | E | F | G | H | I | J | K | L | M | N | O | P | Q | R | S | T | U | V | W | X | Y | Z
/ / / guitar tab

#----------------------------------PLEASE NOTE---------------------------------#
#This file is the author's own work and represents their interpretation of the #
#song. You may only use this file for private study, scholarship, or research. #
#------------------------------------------------------------------------------#


Artist = Lenny Kravitz
Song = Lady

[tabbed by Kyle Flood]
e-mail = flash_flood_alert@yahoo.com
b = bend
v = vibrato



     beat: 1   2   3 +   +   +   + 3   4

       e :-3---3---3-3---3---3---3-3---3--|
       B :-3---3---3-3---3---3---3-3---3--|
A:     G :-4---4---4-4---4---4---4-4---4--|
       D :-5---5---5-5---5---5---5-5---5--|
       A :-5---5---5-5---5---5---5-5---5--|
       E :-3---3---3-3---3---3---3-3---3--|



     beat: 1   2   3 +   +   + 2   3   4

       e :-5---5---5-5---5---4-4---4---4--|
       B :-6---6---6-6---6---5-5---5---5--|
B:     G :-5---5---5-5---5---4-4---4---4--|
       D :-7---7---7-7---7---6-6---6---6--|
       A :-7---7---7-7---7---6-6---6---6--|
       E :-5---5---5-5---5---4-4---4---4--|



     beat: 1   2  3  +   +   +   + 3   4

       e :-8---8--8--8---7---7---7-7---7--|
       B :-8---8--8--8---7---7---7-7---7--|
C:     G :-9---9--9--9---8---8---8-8---8--| 	
       D :-10--10-10-10--9---9---9-9---9--|
       A :-10--10-10-10--9---9---9-9---9--|
       E :-8---8--8--8---7---7---7-7---7--|



     beat: 1   2   3  +    +   +   + 3   4

       e :-12--12--12-12---5---5---5-5---5-|
       B :-12--12--12-12---5---5---5-5---5-|
D:     G :-13--13--13-13---6---6---6-6---6-|
       D :-14--14--14-14---7---7---7-7---7-|
       A :-14--14--14-14---7---7---7-7---7-|
       E :-12--12--12-12---5---5---5-5---5-|



     beat: 1  +  2  +  3  +  4  +         1  +  2  +  3  +  4  +
	
       e :-12-12-12-12-12-12-12-12-|     -5--5--5--5--5--5--5--5--|
       B :-12-12-12-12-12-12-12-12-|     -5--5--5--5--5--5--5--5--|
E:     G :-13-13-13-13-13-13-13-13-| x2  -6--6--6--6--6--6--6--6--| x2
       D :-------------------------|     -------------------------|
       A :-------------------------|     -------------------------|
       E :-------------------------|     -------------------------|

     beat: 1  +  2  +  3  +  4  +         1  +  2  +  3  +  4  +
	
       e :-8--8--8--8--8--8--8--8--|     -12-12-12-12-12-12-12-12-|
       B :-8--8--8--8--8--8--8--8--|     -12-12-12-12-12-12-12-12-|
       G :-9--9--9--9--9--9--9--9--| x2  -13-13-13-13-13-13-13-13-| x2
       D :-------------------------|     -------------------------|
       A :-------------------------|     -------------------------|
       E :-------------------------|     -------------------------|



solo:

    b     b    b    b     b                                 v
e :------------------------------------------------------------|
B :-12-10------------------------------------------------------|
G :-------12-9----------------------------------------------12-|
D :------------12-9------------------------------------9-12----|
A :-----------------12-10-------------------------5-10---------|
E :-----------------------12-10-7-5-3-0---3-3---7--------------|

                      v          b                         v
e :--------------------------------------------------10-12-15--|
B :-12-12-12-10----10-10------10-13---12-10----10-12-----------|
G :-------------12---------12---------------12-----------------|
D :------------------------------------------------------------|
A :------------------------------------------------------------|
E :------------------------------------------------------------|




Order: (by sections)
A x4
B x1
A x2
B x1

A x1
C x1
D x1
C x1
D x1
C x1

A x2
B x1
A x2
B x1

A x1
C x1
D x1
C x1
D x1
C x1

E (16 measures long)
solo
C x1
D x1
C x1
D x1
C x1
D x1
C x1
E till the end



At some point a second guitar comes in with little riffs on beats "+ a 4".
pretty straight forward song, email me with questions, comments, or changes.
flash_flood_alert@yahoo.com


albums
tabs

 

1