Search tabs:
Browse artists: 0-9 | A | B | C | D | E | F | G | H | I | J | K | L | M | N | O | P | Q | R | S | T | U | V | W | X | Y | Z
/ / / guitar tab

I made this tab based on the music video. Hopefully the version of this song on the album released in May is the same.



Lenny Kravitz - Where Are We Runnin\\'?


Intro
|-------------------------------|
|-------------------------------|
|-7-7-7--9-9--------------------| 4x
|-7-7-7--9-9--------------------|
|-5-5-5--7-7--9-9-11-9-9-9-11-9-|
|-------------7-7-9--7-7-7-9--7-|



Verse
|---------------------------------|
|---------------------------------|
|---------------------------------| 2x
|---------------7-7---------------|
|-9-9---9-9-9---5-5-7---7-7-7-7---|
|-7-7---7-7-7-------5---5---5---5-|



Prechorus
|---------------------------------|
|---------------------------------|
|---------------------------------|
|-5-5-5-5-5-5-5-5-7-7-7-7-7-7-7-7-|
|-x-x-x-x-x-x-x-x-x-x-x-x-x-x-x-x-|
|-3-3-3-3-3-3-3-3-5-5-5-5-5-5-5-5-|



Chorus
|-------------------------------|
|-------------------------------|
|-7-7-7--9-9--------------------| 4x
|-7-7-7--9-9--------------------|
|-5-5-5--7-7--9-9-11-9-9-9-11-9-|
|-------------7-7-9--7-7-7-9--7-|



Verse, 2x

Prechorus, 1x

Chorus, 4x

Prechorus, 1x



Solo
|--------------------------------------------------------|
|--------------------------------------------------------|
|----7-9-9b11---11r9-7-9-7-9-7b9----------7-7b9-7-----7b-|
|-/9-------------------------7---9----7-9---------9-9----|
|--------------------------------------------------------|
|--------------------------------------------------------|

|-------------------------------------------10-12--------|
|-10-12-12b14---14r12-10-12-10-12-12br-12----------------|
|--------------------------------------------------------|
|--------------------------------------------------------|
|--------------------------------------------------------|
|--------------------------------------------------------|

|-10p9---------------------------------------------------|
|------12p10-9p7-----------------------------------------|
|----------------9p7-------------------------------------|
|--------------------11p9p7------9--9brvvvvvvv-----------|
|---------------------------9p7--------------------------|
|--------------------------------------------------------|



Chorus, until the end of the song


albums
tabs

 

1