Search tabs:
Browse artists: 0-9 | A | B | C | D | E | F | G | H | I | J | K | L | M | N | O | P | Q | R | S | T | U | V | W | X | Y | Z
/ Lit / Tripping the Light Fantastic (1997) / Bitter guitar tab

Author/Artist: Lit
Title: Bitter
Album: Tripping The Light Fantastic
Transcribed by: Tim Herscovitch
Email: Gringle@aol.com

DADGBE Tuning
(Drop D)

Main Riff
==========

e|------------------------------------------------------------------------------|
B|------------------------------------------------------------------------------|
G|------6-6--5-5-----------8-8--6-6---------------------------------------------|
d|-3-3--6-6--5-5--3---3-3--8-8--6-6--3------------------------------------------|
A|-3-3--4-4--3-3--3---3-3--6-6--4-4--3------------------------------------------|
D|-3-3------------3---3-3------------3------------------------------------------|


Verses
=======

e|------------------------------------------------------------------------------|
B|------------------------------------------------------------------------------|
G|------------------------------------------------------------------------------|
d|-3--333---2b-2b-2b-2b-2b-2b-2b--3-3-3-1-1/3-3-3-1-1-x-x-x--3-2b2b2b2b2b2b2b---|
A|-3--333-------------------------3-3-3-1-1/3-3-3-1-1-x-x-x--3------------------|
D|-3--333-------------------------3-3-3-1-1/3-3-3-1-1-x-x-x--3------------------|


Bridge 1
========
"Hurry up, wait up..."

e|------------------------------------------------------------------------------|
B|------------------------------------------------------------------------------|
G|----6-6-----------------------------------------------------------------------|
d|--3-6-6-3-3-3-3---------------------------------------------------------------|
A|--3-4-4-3-3-3-3---------------------------------------------------------------|
D|--3-----3-3-3-3---------------------------------------------------------------|


Bridge 2
========

The first part of this staff should be clean.  Try
playing it with a distortion pedal and just hit the
cutoff, or if you're quick you can just turn your
volume knob down real quick.

e|-------------------------------|-----------------------------------------------|
B|-------------------------------|-----------------------------------------------|
G|---------------6---------------|----------------6-6-6-6-6-6-6-6----------------|
d|-3-------------6---------------|-3-3-3-3-3-3-3--6-6-6-6-6-6-6-6----------------|
A|-3-------------4-4-4-4-4-4-4-4-|-3-3-3-3-3-3-3--4-4-4-4-4-4-4-4----------------|
D|-3-3-3-3-3-3-3-----------------|-3-3-3-3-3-3-3---------------------------------|
   pm.........   pm...........

Chorus
=======
e|------------------------------------------------------------------------------|
B|------------------------------------------------------------------------------|
G|------------------------------------------------------------------------------|
d|-3-3-3/11-11---6-6-6--4-4-----------------------------------------------------|
A|-3-3-3/11-11---6-6-6--4-4-----------------------------------------------------|
D|-3-3-3/11-11---6-6-6--4-4-----------------------------------------------------|


That's it.  The solo is just a lot of feedback.  To
do something similar to what Jeremy does, put your gain
up all the way, and basically get really close to your amp.
Move around a lot, and you'll get the variations in the
feedback sound.  If you're not getting good enough feedback,
try actually placing the head of your guitar on the amp itself
or hitting a couple muted strings above the 4th fret harmonic.

Peace
-Tim (Gringle@aol.com)


Lit albums
2004 Lit
2001 Atomic
1999 A Place in the Sun
1997 Tripping the Light Fantastic
1996 Five Smokin' Tracks from Lit
Tripping the Light Fantastic tabs
05Habib tabbass tab
07Bitter tabbass tab
09Dozer tabbass tab
10Fireman tabbass tab

 

1