Search tabs:
Browse artists: 0-9 | A | B | C | D | E | F | G | H | I | J | K | L | M | N | O | P | Q | R | S | T | U | V | W | X | Y | Z
/ The Living End / Modern Artillery (2003) / Putting You Down guitar tab

E|--3-----3-----3-----3-3h5p3-1h3/5-3-1---------------------------||
B|----3-----3-----3---3-3h5p3-----------3-44----------------------||
G|------0-----0---------------------------55----------------------||
D|----------------------------------------55----------------------||
A|----------------------------------------33-1h3/5----------------||
E|------------------0---------------------------------------------||

                                                                x2
E|----------------------------------------------------------------||
B|--3-3-1h3p1-----3-3-1h3p1---------------------------------------||
G|------------5h7-----------5h7-5-5-------7p5-5-5-------7p5-------||
D|----------------------------------5/7/5---------5/7/5-----------||
A|----------------------------------------------------------------||
E|----------------------------------------------------------------||

                                                                x2
E|----------------------------------------------------------------||
B|--44-x-x--------------------------------------------------------||
G|--55-x-x-44-x-x-66-x-666--22-x-222--44-x-444--------------------||
D|--55-x-x-55-x-x-77-x-777--33-x-333--55-x-555--------------------||
A|--33-x-x-55-x-x-77-x-777--33-x-333--55-x-555--------------------||
E|---------33-x-x-55-x-555--11-x-111--33-x-333--------------------||


E|-----3-3h5h3----------------------------------------------------||
B|--4--3-3h5h3--44444444--44--------------------------------------||
G|--5-----------55555555--55--------------------------------------||
D|--5-----------55555555--55--------------------------------------||
A|--3-----------33333333--33--1h3/5-------------------------------||
E|----------------------------------------------------------------||

                                                                x2
E|----------------------------------------------------------------||
B|--66666666666666--44444444444444--------------------------------||
G|--77777777777777--55555555555555--------------------------------||
D|--77777777777777--55555555555555--------------------------------||
A|--55555555555555--33333333333333--------------------------------||
E|----------------------------------------------------------------||

                                                                x2
E|----------------------------------------------------------------||
B|--44-x-x--------------------------------------------------------||
G|--55-x-x-44-x-x-66-x-666--22-x-222--44-x-444--------------------||
D|--55-x-x-55-x-x-77-x-777--33-x-333--55-x-555--------------------||
A|--33-x-x-55-x-x-77-x-777--33-x-333--55-x-555--------------------||
E|---------33-x-x-55-x-555--11-x-111--33-x-333--------------------||

guitar 2
E|----------------------------------------------------------------||
B|--0-3p1-3-0-1-0-3-1-0-1p0---------------------------------------||
G|---------------------------0------------------------------------||
D|----------------------------------------------------------------||
A|----------------------------------------------------------------||
E|----------------------------------------------------------------||


E|-----3-3h5h3----------------------------------------------------||
B|--4--3-3h5h3--44444444--44--------------------------------------||
G|--5-----------55555555--55--------------------------------------||
D|--5-----------55555555--55--------------------------------------||
A|--3-----------33333333--33--1h3/5-------------------------------||
E|----------------------------------------------------------------||

                                                                x2
E|----------------------------------------------------------------||
B|--66666666666666--44444444444444--------------------------------||
G|--77777777777777--55555555555555--------------------------------||
D|--77777777777777--55555555555555--------------------------------||
A|--55555555555555--33333333333333--------------------------------||
E|----------------------------------------------------------------||


E|----------------------------------------------------------------||
B|--6-6-6-6-----------4-4-4-4-------------------------------------||
G|--7-7-7-7--4-4-4-4--5-5-5-5--6-6-6-6----------------------------||
D|--7-7-7-7--5-5-5-5--5-5-5-5--7-7-7-7----------------------------||
A|--5-5-5-5--5-5-5-5--3-3-3-3--7-7-7-7----------------------------||
E|-----------3-3-3-3-----------5-5-5-5----------------------------||

                                                                x2
E|----------------------------------------------------------------||
B|--66666666666666--44444444444444--------------------------------||
G|--77777777777777--55555555555555--------------------------------||
D|--77777777777777--55555555555555--------------------------------||
A|--55555555555555--33333333333333--------------------------------||
E|----------------------------------------------------------------||

                                                                x2
E|----------------------------------------------------------------||
B|--44-x-x--------------------------------------------------------||
G|--55-x-x-44-x-x-66-x-666--22-x-222--44-x-444--------------------||
D|--55-x-x-55-x-x-77-x-777--33-x-333--55-x-555--------------------||
A|--33-x-x-55-x-x-77-x-777--33-x-333--55-x-555--------------------||
E|---------33-x-x-55-x-555--11-x-111--33-x-333--------------------||


E|-----3-3h5p3-----3-3h5p3----------------------------------------||
B|--4--3-3h5p3--4--3-3h5p3--44444444--44--------------------------||
G|--5-----------5-----------55555555--55--------------------------||
D|--5-----------5-----------55555555--55--------------------------||
A|--3-----------3-----------33333333--33--1h3/5-------------------||
E|----------------------------------------------------------------||
                                                                x2

E|----------------------------------------------------------------||
B|--66666666666666--44444444444444--------------------------------||
G|--77777777777777--55555555555555--------------------------------||
D|--77777777777777--55555555555555--------------------------------||
A|--55555555555555--33333333333333--------------------------------||
E|----------------------------------------------------------------||

                                                                x2
E|----------------------------------------------------------------||
B|--3-3-1h3p1-----3-3-1h3p1---------------------------------------||
G|------------5h7-----------5h7-5-5-------7p5-5-5-------7p5-------||
D|----------------------------------5/7/5---------5/7/5-----------||
A|----------------------------------------------------------------||
E|----------------------------------------------------------------||


have fun solo comin soon cheers reece


The Living End albums
2003 Modern Artillery
2000 Roll On
1998 Hellbound: It's for Your Own Good
1998 The Living End
Modern Artillery tabs
01What Would You Do? tabbass tab
02One Said to the Other tabbass tab
03Who's Gonna Save Us? tabbass tab
04End of the World tabbass tab
05Jimmy tabbass tab
06Tabloid Magazine tabbass tab
08Maitland Street tabbass tab
09Putting You Down tabbass tab
10Short Notice tabbass tab
12Rising Up from the Ashes tabbass tab
13Hold Up tabbass tab
14The Room tabbass tab

 

1