Search tabs:
Browse artists: 0-9 | A | B | C | D | E | F | G | H | I | J | K | L | M | N | O | P | Q | R | S | T | U | V | W | X | Y | Z
/ The Living End / Modern Artillery (2003) / What Would You Do guitar tab

WHAT WOULD YOU DO?
                            Album Version

/= slide up
\= slide down
~v^= whammy bar (down, then up)

CHORDS:

  D        A        G       F#       Em       Bm
e---|    e---|    e-3-|    e-2-|    e-0-|    e-2-|
b---|    b-2-|    b-3-|    b-2-|    b-0-|    b-3-|
g-7-|    g-2-|    g-4-|    g-3-|    g-0-|    g-4-|
d-7-|    d-2-|    d-5-|    d-4-|    d-2-|    d-4-|
a-5-|    a-0-|    a-5-|    a-4-|    a-2-|    a-2-|
e---|    e---|    e-3-|    e-2-|    e-0-|    e---|



Verse 1:

D
I don't know enough about the things you do

D
I don't know enough to say I really know you

    G                     F#   Em
But I already fell in love with you

           G          A         D
And if you knew, what would you do?


Verse 2:

D
I can tell alot by the things you wear

D
I can tell you're gonna be a millionaire

    G                     F#   Em
But I already fell in love with you

           G          A         D
And if you knew, what would you do?


Chorus:

E               A
I've stopped my-self from trying

D                   Bm
I shouldn't talk to you

E          A
And now in-side I'm dying

G    A         D
What would you do?

(also, in the backround of the chorus, this is being played up
until the 'what would you do' part)

e----------------------------------------------------------------------------------|
b-----3--3--3-3-3-3-3--3--3--3--3--3--3-3-3-3-3---3-3-----3--3--3-3-3-3-3--3--3-3--|
g----------------------------------------------------------------------------------|
d--0--0------------------------------------------------0--0------------------------|
a----------------------------------------------------------------------------------|
e----------------------------------------------------------------------------------|


Verse 1

Solo:

e--0-0-0-0-0-0-0-0-0-0-0-0------|
b-/3-3-2-2-0-0-0-0-0-0-0-0--3~v-|
g--------------2-2-----2-0--0~v-| x2
d---------------------------2~v-|
a-------------------------------|
e-------------------------------|

e-----------------0~v^-----------------------------|
b-----------------0~v^-------------------7-----10\-|
g-----------------0~v^-------------------7--/7--7\-|
d--4/5-5-4/5-5-4--2~v^----------0--------7---------|
a--4/5-5-4/5-5-4--2~v^--------2------4-7-5---------|
e--2/3-3-2/3-3-2--0~v^----/3------5----------------|


Chorus

Verse 1

Outro:

e--3--3-3-----------------------|
b--3--3-3-----------7-7-7--7-7--|
g--0--0-0-2--2-2-7--7-7-7--7-7--| x2
d--0--0-0-2--2-2-7--7-7-7--7-7--|
a--2--2-2-0--0-0-5--5-5-5--5-5--|
e--3--3-3-----------------------|

e--3--3-3-------------------------2--|
b--3--3-3-------------------------3--|
g--0--0-0--2--2-2-2-2-2-2-2-2-2-2-4--|
d--0--0-0--2--2-2-2-2-2-2-2-2-2-2-4--|
a--2--2-2--0--0-0-1-1-1-1-1-1-1-1-2--|
e--3--3-3----------------------------|


e--3--3-3-----------------------|
b--3--3-3-----------------------|
g--0--0-0-2--2-2-7--7--7-7-7-7--|
d--0--0-0-2--2-2-7--7--7-7-7-7--|
a--2--2-2-0--0-0-5--5--5-5-5-5--|
e--3--3-3-----------------------|


Tabbed by Jason Zarpellon
jason_zarps@hotmail.com
www.thelivingendtabpage.cjb.net


The Living End albums
2003 Modern Artillery
2000 Roll On
1998 Hellbound: It's for Your Own Good
1998 The Living End
Modern Artillery tabs
01What Would You Do? tabbass tab
02One Said to the Other tabbass tab
03Who's Gonna Save Us? tabbass tab
04End of the World tabbass tab
05Jimmy tabbass tab
06Tabloid Magazine tabbass tab
08Maitland Street tabbass tab
09Putting You Down tabbass tab
10Short Notice tabbass tab
12Rising Up from the Ashes tabbass tab
13Hold Up tabbass tab
14The Room tabbass tab

 

1