Search tabs:
Browse artists: 0-9 | A | B | C | D | E | F | G | H | I | J | K | L | M | N | O | P | Q | R | S | T | U | V | W | X | Y | Z
/ The Living End / Modern Artillery (2003) / Who's Gonna Save Us? guitar tab

WHO'S GONNA SAVE US?

/= slide up
\= slide down
pm= palm mute
p= pull off
h= hammer on
~= vibrado
^= full bend
^^= bend up 2 frets
v= bring bend down

I've been asked about this so much. Yes, Chris does play the intro
differently. So I'll write my way, and his way. Note: They're exactly
the same! It's just that with Chris' way, you'll have to stretch your
fingers a bit.


Intro:
My way
e--3-3-3---3---3---3-3-3---3---3------|
b--3-1-0---0---0---3-1-0---0---0------|
g--------0-2-0-2-0-------0-2-0-2-0----|
d-------------------------------------| Repeat as needed
a-------------------------------------|
e-------------------------------------|

Chris' way
e-------------------------------------|
b--8-8-8---8---8---8-8-8---8---8------|
g--7-5-4-0-0-0-0-0-7-5-4-0-0-0-0------|
d----------7---7-----------7---7------|
a-------------------------------------|
e-------------------------------------|

"Who's gonna save us?
Who's gonna save us?"

e-------|
b-------|
g--7-7--|
d--7-7--|
a--5-5--|
e-------|


Verse 1:

e---------------------------------------------------|
b---------------------------------------------------|
g-------------7-------------------5-----------------|
d------5------7--(x2)------2------5------5-------5--|
a------5--5-5-5------------2--3-3-3------5-------5--|
e--3-3-3---------------0-0-0---------3-3-3-3-3-3-3--|
   pm.    ...          ...    ...    ...   .....

"It's all around me and, I just don't understand
It seems all out of place now."


e------0------0---------------------------------------------------|
b------0------1---------------------------------------------------|
g------0------2-------------4--5-5-5-5-5-5-5-5-5-5-5-5-5-5-5-5----|
d------2------2------2------4--5-5-5-5-5-5-5-5-5-5-5-5-5-5-5-5----|
a------2--0-0-0------2--2-2-2--3-3-3-3-3-3-3-3-3-3-3-3-3-3-3-3----|
e--0-0-0---------0-0-0--------------------------------------------|
   pm.    ...    ...    ...

"And I know it's late, but you know what they say now."


Verse 2: Same as Verse 1, but at the end play this

e------------------------------------|
b------------------------------------|
g-5-5-5-5-5-5-5-5-5-5-5-5-5--7-7\----|
d-5-5-5-5-5-5-5-5-5-5-5-5-5--7-7\----|
a-3-3-3-3-3-3-3-3-3-3-3-3-3--5-5\----|
e------------------------------------|


Chorus:
   G        D             E        C        G
e-------------------------------------------3-3-3-3-3-3-3-3----|
b-------------------------------------------3-3-3-3-3-3-3-3----|
g-----------7-7-7-7----------------5-5-5-5--4-4-4-4-4-4-4-4----|
d--5-5-5-5--7-7-7-7-------2-2-2-2--5-5-5-5--5-5-5-5-5-5-5-5----|
a--5-5-5-5--5-5-5-5--(x2)-2-2-2-2--3-3-3-3--5-5-5-5-5-5-5-5----|
e--3-3-3-3----------------0-0-0-0-----------3-3-3-3-3-3-3-3----|
"So where's the writing on the wall, who's gonna save us?"

   Em       Am       Em       Bm     C                        D
e--0-0-0-0--0-0-0-0--0-0-0-0---------------------------------------|
b--0-0-0-0--1-1-1-1--0-0-0-0--3-3-3--------------------------------|
g--0-0-0-0--2-2-2-2--0-0-0-0--4-4-4--5-5-5-5-5-5-5-5-5-5-5-5--7-7--|
d--2-2-2-2--2-2-2-2--2-2-2-2--4-4-4--5-5-5-5-5-5-5-5-5-5-5-5--7-7--|
a--2-2-2-2--0-0-0-0--2-2-2-2--2-2-2--3-3-3-3-3-3-3-3-3-3-3-3--5-5--|
e--0-0-0-0-----------0-0-0-0---------------------------------------|
"Who's gonna provide us? Who's gonna divide us?
Who's gonna save us?"

Verse

Chorus

Solo: Rythem

e--------------------------------------------------------------------------|
b--------------------------------------------------------------------------|
g-----8-8-8-8-----------8-8-8-8-----------5-5-5-5-----------8-8-8-8-8-8-8--|
d--8--8-8-8-8--8-8-8-8--8-8-8-8--8-8-8-8--5-5-5-5--6-6-6-6--8-8-8-8-8-8-8--| x2
a--8--6-6-6-6--8-8-8-8--6-6-6-6--8-8-8-8--3-3-3-3--6-6-6-6--6-6-6-6-6-6-6--|
e--6-----------6-6-6-6-----------6-6-6-6-----------4-4-4-4-----------------|

Lead:

e----------3-4-3h4-------3-4-3h4-------------------------------------------|
b-----4--4---------6-4~----------6-4--4-4-4--------------4-4-6p4-----------|
g--3----------------------------------------4^-/5-3--3h5---------5p3-------|
d--------------------------------------------------------------------------|
a--------------------------------------------------------------------------|
e--------------------------------------------------------------------------|

e------3-4-3h4-------3-4-3h4-----------------------------------------------|
b-4--4---------6-4~----------6--8-----8----8----8----8----8----8-----------|
g------------------------------10^^--10^^-10^^-10^^-10^^-10^^-10^^v-8~--10-|
d--------------------------------------------------------------------------|
a--------------------------------------------------------------------------|
e--------------------------------------------------------------------------|

In the second part of the solo, another guitar is playing
as well. Not that important, but I'll write it out anyway.

e-8-11-8h11-------11-8h11p8-----------------------------------------------------|
b-----------11-8~-----------11^^--11^^-11^^-11^^-11^^-11^^-11^^v----------------|
g----------------------------------------------------------------12~--12h13p12--|
d-------------------------------------------------------------------------------|
a-------------------------------------------------------------------------------|
e-------------------------------------------------------------------------------|


Post solo: Chorus chords in backround

e--3-3-3---3---3---3-3-3---3---3------|
b--3-1-0---0---1---3-1-0---0---1------|
g--------0-2-0---0-------0-2-0---0----|
d-------------------------------------| Repeat as needed
a-------------------------------------|
e-------------------------------------|

or...

e-------------------------------------|
b--8-8-8---8---8---8-8-8---8---8------|
g--7-5-4-0-0-0-0-0-7-5-4-0-0-0-0------|
d----------7---7-----------7---7------|
a-------------------------------------|
e-------------------------------------|


Final Verse:

e---------------------------------------------------------|
b--------------------------------------------0-3----------|
g-------------7-------------------5---------/4---4p2p0----|
d------5------7--(x2)------2------5------5----------------|
a------5--5-5-5------------2--3-3-3------5----------------|
e--3-3-3---------------0-0-0---------3-3-3----------------|
   pm.    ...          ...    ...    ...

"It's all around me and, I just don't understand
It seems all out of place now."

e------0------0---------------------------------------------------|
b------0------1---------------------------------------------------|
g------0------2-------------4--5-5-5-5-5-5-5-5-5-5-5-5-5-5-5-5----|
d------2------2------2------4--5-5-5-5-5-5-5-5-5-5-5-5-5-5-5-5----|
a------2--0-0-0------2--2-2-2--3-3-3-3-3-3-3-3-3-3-3-3-3-3-3-3----|
e--0-0-0---------0-0-0--------------------------------------------|
   pm.    ...    ...    ...

"And I know it's late, but you know what they say now."

(Keep repeating C chord until the Who's gonna provide bit)


Chorus

Intro

Finish on:

e--------3----|
b--------3----|
g--7-7\--4----|
d--7-7\--5----|
a--5-5\--5----|
e--------3----|

Tabbed by Jason Zarpellon
jason_zarps@hotmail.com
www.thelivingendtabpage.cjb.net


The Living End albums
2003 Modern Artillery
2000 Roll On
1998 Hellbound: It's for Your Own Good
1998 The Living End
Modern Artillery tabs
01What Would You Do? tabbass tab
02One Said to the Other tabbass tab
03Who's Gonna Save Us? tabbass tab
04End of the World tabbass tab
05Jimmy tabbass tab
06Tabloid Magazine tabbass tab
08Maitland Street tabbass tab
09Putting You Down tabbass tab
10Short Notice tabbass tab
12Rising Up from the Ashes tabbass tab
13Hold Up tabbass tab
14The Room tabbass tab

 

1