Search tabs:
Browse artists: 0-9 | A | B | C | D | E | F | G | H | I | J | K | L | M | N | O | P | Q | R | S | T | U | V | W | X | Y | Z
/ The Living End / Roll On (2000) / Astoria Paranoia guitar tab

-THE LIVING END-
                           Astoria Paranoia

                      Transcribed By Michael Fryar
                         manumick20@yahoo.com

Tune low E to D

h=hammer-on
p=pull off
^=bend
~=vibrado
s=slide
A.H=artificial harmonic
ect=keep playing as needed




Intro:

e-----------------------|
b-----------------------|
g-----------------------|
d-----------------------|(x5)
a--2p0-2p0-2p0-0-0-0-2--|
D--2p0-2p0-2p0-0-0-0-2--|




Verse:

e-------------------------------------|
b-------------------------------------|
g--------------------5-5-5-5-5-5-5-5--|
d--------------------5-5-5-5-5-5-5-5--|(x2)
a--2-2-2-2--5-5-5-5--3-3-3-3-3-3-3-3--|
D--2-2-2-2--5-5-5-5-------------------|
  / p a l m    m u t e d............\

e----------------------------------------|
b----------------------------------------|
g--------------------7-7-7-7-5-5-5-5-----|
d--------------------7-7-7-7-5-5-5-5-----|
a--2-2-2-2--5-5-5-5--5-5-5-5-3-3-3-3--2--|
D--2-2-2-2--5-5-5-5-------------------2--|
  / p a l m   m u t e d.............\

Repeat Both Sections


e--7-6-7-6-7-6-7--|
b--8-7-8-7-8-7-8--|
g--9-8-9-8-9-8-9--|
d--9-8-9-8-9-8-9--|
a--7-6-7-6-7-6-7--|
D-----------------|


*e--------------------3--3--3--3-3---|
*b-------------------3--3--3--3------|
*g-----------------------------------|
*d-----------------------------------|
*a--2-2-2-2--5-5-5-5-----------------|
*D--2-2-2-2--5-5-5-5-----------------|


e------------------------------------|
b------------------------------------|
g------------------------------------|
d--------------------5-7-9-10-10~s---|
a--2-2-2-2--5-5-5-5------------------|
D--2-2-2-2--5-5-5-5------------------|


e-------------------------------------|
b-------------------------------------|
g--------------------7-7-7-7-5-5-5-5--|
d--------------------7-7-7-7-5-5-5-5--|
a--2-2-2-2--5-5-5-5--5-5-5-5-3-3-3-3--|
D--2-2-2-2--5-5-5-5-------------------|


e-------------------7-6-7-6-7-6-7--|
b-------------------8-7-8-7-8-7-8--|
g-------------------9-8-9-8-9-8-9--|
d-------------------9-8-9-8-9-8-9--|
a--2-2-2-2-2-2-2-2--7-6-7-6-7-6-7--|
D--2-2-2-2-2-2-2-2-----------------|



Chorus:


e-----------------------------------|
b-----------------------------------|
g--5-5-5-5-5-5-5-5-5-5-5-5-5-5-5-5--|
d--5-5-5-5-5-5-5-5-5-5-5-5-5-5-5-5--|
a--3-3-3-3-3-3-3-3-3-3-3-3-3-3-3-3--|
D-----------------------------------|


e--------------------------------|
b--------------------------------|
g--------------------------------|
d------------------5-7-9-10-10~--|(x2)
a--2-2-2-2-2-2-2-2---------------|
D--2-2-2-2-2-2-2-2---------------|


Verse (only from the *`s)


Chorus



Bridge/Pre Solo whateva you wanna call it:

 (I doubt all the strummimg is correct, if so just strum over
   the chords)

    D#             C#        D#
e--------------------------------------|
b------8-------------6----------8------|
g----8-----8-------6-----6-----8----8--|
d---8-------------6-----------8--------|
a--6-----6---6---4-----4-----6----6----|
D--------------------------------------|


   C#          E
e------------------------------------|
b------6---------9-9---9-------9-----|
g----6-----6----9------------9-------|
d---6----------9---------9--9--------|
a--4-----4----7------7-----7-----7---|
D------------------------------------|



e-----12----12----12----12----12----12-(ect)--|
b--15----15----15----15----15----15-----------|
g---------------------------------------------|
d---------------------------------------------|
a---------------------------------------------|
D---------------------------------------------|



Solo:

e--------------------------------------|
b--------------------------------------|
g--------------------------------------|
d--------------------------------------|
a-2p0-2p0-2p0-0-0-0---2p0-2p0-2p0-0-0--|
D-2p0-2p0-2p0-0-0-0---2p0-2p0-2p0-0-0--|


e-------------------------------------------|
b-------------------------------------------|
g-------------------------------------------|
d------5-7-5-6-5----------------------------|
a--5-7-----------7-5-5--3-3-3~----2-0-------|
D-------------------------------------------|


e------------------------------------------------|
b------------------------------------------------|
g------------------------------------------------|
d--9^-9^-7----12-9-10-------------14h16h17-18s---|
a----------10------------14h16h17----------------|
D------------------------------------------------|
                       |not fully sure about fast bit|


e--10-12-10-10-12-10-10-12-10-10--|
b---------------------------------|
g---------------------------------|
d---------------------------------|
a---------------------------------|
D---------------------------------|

e--12-13-12-12--13-12-12-13^-|
b----------------------------|
g----------------------------|
d----------------------------|
a----------------------------|
D----------------------------|


e--15-14-12-11-10----------------------------|
b--15-14-12-11-10-12(A.H)-10-----------------|
g----------------------------12-10-----------|
d----------------------------------12-11-10--|
a--------------------------------------------|
D--------------------------------------------|


Chorus



Outro: *there are 2 guitar,choose what you
        think is better! hehehe*


Guitar 1:


e-----12----12----12----12----12----12-(ect)-|
b--15----15----15----15----15----15----------|
g--------------------------------------------|
d--------------------------------------------|
a--------------------------------------------|
D--------------------------------------------|


Guitar 2:

e---------------------|
b---------------------|
g--9--9--9------------|
d--9--9--9------------|repeat as needed
a--7--7--7--7-5-7-5---|
D---------------------|



Finish On:

e-----|
b-----|
g-----|
d-----|
a--2--|
D--2--|


The Living End albums
2003 Modern Artillery
2000 Roll On
1998 Hellbound: It's for Your Own Good
1998 The Living End
Roll On tabs
01Roll On tabbass tab
02Pictures in the Mirror tabbass tab
03Riot on Broadway tabbass tab
05Carry Me Home tabbass tab
06Don't Shut the Gate tabbass tab
07Dirty Man tabbass tab
08Blood on Your Hands tabbass tab
09Revolution Regained tabbass tab
11Read About It tabbass tab
12Killing the Right tabbass tab
13Astoria Paranoia tabbass tab
14Uncle Harry tabbass tab
15Prisoner of Society tabbass tab

 

1