Search tabs:
Browse artists: 0-9 | A | B | C | D | E | F | G | H | I | J | K | L | M | N | O | P | Q | R | S | T | U | V | W | X | Y | Z
/ The Living End / Roll On (2000) / Killing the Right guitar tab

-THE LIVING END-
                                     Killing The Right
                                Transcription By Mick Fryar
                                   manumick20@yahoo.com

Sorry if this transcription is difficult to read. I tried my best. I got all of this song here
but Im a little worried with the setting out of "Intro B" but it`s all in there okay.
Hope this helps you all. Cheers, Mick

*p*=light pull-off, almost un-noticed
p=pull-off
h=hammer-on
x=dead note (strum but dont play!)
s=slide
~=vibrado/bend


IntroA:

e--2--------2--------2--------3--------2---------------|
b--0-5p4p0--0-5p4p0--0-5p4p0--x-6p5p0--0-5p4p0---------|
g--3--------3--------3--------4--------3-------2-------|
d------------------------------------------------------|
a------------------------------------------------------|
e------------------------------------------------------|

IntroB:

         Em
e-------7-7-7-------7-7-7-------7-7-7-7-----7-7-7-------------------------------------------------------|
b-------8-8-8-------8-8-8-------8-8-8-8-----8-8-8-------------------------------------------------------|
g-------9-9-9-------9-9-9-------9-9-9-9-----9-9-9-------------------------------------------------------|
d-------9-9-9-------9-9-9-(x8)--9-9-9-9-----9-9-9-(do that as needed, hey I aint countin,too confusing!-|
a-------7-7-7-------7-7-7-------7-7-7-7-----7-7-7-------------------------------------------------------|
e--0-0---------0-0----------------------0-0-------------------------------------------------------------|
                               tempo is changed and yeah, ARGH tricky at first!

    D  E           Em
e---------:------7-7-7-------7-7-7---------------------------------|
b---------:------8-8-8-------8-8-8---------------------------------|
g--7-7-9--:------9-9-9-------9-9-9---------------------------------|
d--7-7-9--:------9-9-9-------9-9-9-(play this section as needed)---|
a--5-5-7--:------7-7-7-------7-7-7---------------------------------|
e---------:-0-0---------0-0----------------------------------------|

  Em     D   E        D   E
e--7----------------------------|
b--8----------------------------|
g--9---7-7-7-9------7-7-7-9-----|
d--9---7-7-7-9------7-7-7-9-----|
a--7---5-5-5-7------5-5-5-7-----|
e-------------------------------|


Verse:
   Em      Em+double sharp   D   C                   (p.s, I can`t remember the name of that Em d# chord!)
e--7-7-7-7-7--7--7-7--------------------------|
b--8-8-8-8-10-10-8-8--------------------------|
g--9-9-9-9-7--7--9-9--------7-7--5---7-7--5---|
d--9-9-9-9-9--9--9-9--------7-7--5---7-7--5---|(x2)
a--7-7-7-7-7--7--7-7--------5-5--3---5-5--3---|
e---------------------------------------------|


  Cm                  D
e----3--------------------------|
b------4---4-----------7--------|
g------------5-------------7----|
d--------5-----5---------7------|(x3)
a-3---------------3--5-------5--|
e-------------------------------|


    D           B
e-------------------------------|
b-------------------------------|
g--7-7-7-6-4-2-4-4---4-4-4------|
d--7-7---------4-4---4-4-4------|
a--5-5---------2-2---2-2-2------|
e-------------------------------|

IntroB *play as many times at needed,not as many a previously played before though.*

Chorus:

   C             G                                                            B
e--0-0-0-0-0-0--3-3-3-3-3-3-------------------------|      Fill:e----------------------------|
b--5-5-5-5-5-5--3-3-3-3-3-3-------------------------|           b----------0---2h3p2---------|
g--5-5-5-5-5-5--4-4-4-4-4-4-------------------------|           g--5-3-2-0---0-------2---4-4-|
d--2-2-2-2-2-5--5-5-5-5-5-5-------------5-6~--(x2)--|           d----------------------3-4-4-|
a--3-3-3-3-3-3--5-5-5-5-5-5---5-7-8~--8-------------|           a------------------------2-2-|
e---------------3-3-3-3-3-3-------------------------|           e----------------------------|


Verse

Chorus

Solo:

e------------------------------------------------------------------------------------------12-----12--|
b---------------------3-1-0-1--------------------------3-1-0-1--1-3-4s-10-13-12---10-12-13----12~-----|
g--2-5(A.H)-4-2-4~--2---------------2-5(A.H)-4-2-4~--2--------------------------9---------------------|
d-----------------------------------------------------------------------------------------------------|
a-----------------------------------------------------------------------------------------------------|
e-----------------------------------------------------------------------------------------------------|


e--10-8-7-8~-8s10----------------------------------------------------8-11-10--------------------11-10-11-|
b-----------------9-------------9-------------------------------7-10---------8------------8--------------|
g-------------------10-7---7-10------8-7-5-7~----10-8-7-8~-8-10-----------------5-7-8-7-8----10----------|
d------------------------9---------5----------10---------------------------------------------------------|
a--------------------------------------------------------------------------------------------------------|
e--------------------------------------------------------------------------------------------------------|


e--------------------------------------------------------|
b-----12p9----------9-12-15p12---------------------------|
g--10------10----10------------13----------------13*p*12-|
d-------------12------------------15-12----12-15---------|
a---------------------------------------14---------------|
e--------------------------------------------------------|


e---------------------------------------------------------------------------|
b-------5-7-8-----------------------5-7-8-----------------------5-7-7-11----|
g--3-3--x-x-x-4-4-4-4-4-4-4-4--3-3--x-x-x-4-4-4-4-4-4-4-4--3-3--x-x-x-x-----|
d--x-x--2-4-5-4-4-4-4-4-4-4-4--x-x--2-4-5-4-4-4-4-4-4-4-4--x-x--2-4-5-8-7-5-|
a--3-3--------2-2-2-2-2-2-2-2--3-3--------2-2-2-2-2-2-2-2--3-3--------------|
e---------------------------------------------------------------------------|

Last Verse:
      F                                E              D
e------------------------------------------------------------------------|
b------------------------------------------------------------------------|
g-10-10-10-10-10-10-10-10-10-10--9-9-9-9-9-9-9-9-9-9-7-7-7-7-7-7-7-7-7-7-|
d-10-10-10-10-10-10-10-10-10-10--9-9-9-9-9-9-9-9-9-9-7-7-7-7-7-7-7-7-7-7-|
a-8--8--8--8--8--8--8--8--8--8---7-7-7-7-7-7-7-7-7-7-5-5-5-5-5-5-5-5-5-5-|
e------------------------------------------------------------------------|

         F                   E F  G      G#
e---------------------------------------------------------------------------|
b---------------------------------------------------------------------------|
g-10-10-10-10-10-10-10-10-10-9-10-12--13-13-13-13-13-13-13-13-13------------|
d-10-10-10-10-10-10-10-10-10-9-10-12--13-13-13-13-13-13-13-13-13------------|
a-8--8--8--8--8--8--8--8--8--7-8--10--11-11-11-11-11-11-11-11-11------------|
e---------------------------------------------------------------------------|

    C#m                C
e-----4-4---------4------0---------------|
b----5------5-----------5--5-------5-----|
g---6---------6--------5-------5---------|
d--6------6-----6-----5------5-----------|
a-4------------------3-----------3---3---|
e----------------------------------------|

     D               E              D
e-----------------------------------------------|
b-----------------------------------------------|
g-7---7----7----9-9-9-9-9-9-9-9-7-7-7-7-7-7-7-7-|
d-7---7----5----9-9-9-9-9-9-9-9-7-7-7-7-7-7-7-7-|
a-5---5----5----7-7-7-7-7-7-7-7-5-5-5-5-5-5-5-5-|
e-----------------------------------------------|
                     /palm mute\

then play the other chorus as few times with lead fills in which I think are
in D pentaonics scales(or around that area)
,followed by: Outro:

   C  G    D   C          D                            E  B   C   D#   E
e------------------------------------------------------------------------|
b---------------------------------------------------------------------9s-|
g--5---------------7-7-5---7-7--7-7--7-7--7---7------9-9--------8-8-8-9s-|
d--5------5--------7-7-5---7-7--7-7--7-7--7---7-(x4)-9-9-9-9-10-8-8-8-9s-|
a--3(x4)--5(x4)----5-5-3---5-5--5-5--5-5--5---5------7-7-9-9-10-6-6-6-7s-|
e---------3----------------------------------------------7-7--8----------|.





====================================================================================

          Song:"Killing the right"
          Artist: the Living End
          Tabbed by : julian015@hotmail.com

          Intro riff (very fast)

          E|-2---------2--------2--------3--------2---------|
          B|-0--5p4p0--0-5p4p0--0-5p4p0----5p4p0--0-5p4-0---|
          G|----------------------------------------------2-|
          D|------------------------------------------------|
          A|------------------------------------------------|
          E|------------------------------------------------|

          Intro chords :
          *Listen to the song for the timing, and play as many times as required)

                              (Eminor)

          E|-----7-7-7-----7-7-7----7-7-7-----7-7-7-|-----------------|-----7-7-7------|
          B|-----8-8-8-----8-8-8----8-8-8-----8-8-8-|-----------------|-----8-8-8------|
          G|-----9-9-9-----9-9-9----9-9-9-----9-9-9-|-7-----7------7--|-----9-9-9-etc.-|
          D|-----9-9-9-----9-9-9----9-9-9-----9-9-9-|-7-----7------7--|-----9-9-9------|
          A|----------------------------------------|-5-----5------5--|----------------|
          E|-0-0-------0-0-------0-0------0-0-------|-----------------|-0-0------------|
                                                      Kil - ling - the  right

          E|-------------------------------------------------|
          B|-------------------------------------------------|
          G|--9----------------------------7-----7----7---9--|
          D|--9----------------------------7-----7----7---9--|
          A|--7----------------------------5-----5----5---7--|
          E|-------------------------------------------------|
            I Don't wanna be a stolen boy  Kil - ling the right
                                                       (I Don't wanna...)

          Verse :
          *Each note = 1 stroke in the song

          E|-7---7---7---7---7----7----7---7-|------------------------------|-------|(This fill
          B|-8---8---8---8---10---10---8---8-|------------------------------|-------|is only played
          G|-9---9---9---9---9----9----9---9-|-7--7--x--5------5/7--7--x--5-|-------|once during
          D|-9---9---9---9---7----7----9---9-|-7--7--x--5------5/7--7--x--5-|-------|each
          A|---------------------------------|-5--5--x--3------3/5--5--x--3-|-2-----|verse
          E|---------------------------------|------------------------------|---3-2-|)
            Show me the...                     Of stolen..     I struggle..
            Seems like a phase..               A secret..      A reason..


          Bridge part 1 : (repeat this 3 times)

            Cm                  D
          E|----3------------------2-----2-------|
          B|------4---4--------------3-----3---3-|
          G|------------5--------------2-----2---|
          D|--------5-----5-----0----------------|
          A|-3---------------3-------------------|
          E|-------------------------------------|
            Well the speakers.. Whoa..
            For the neighbour.. Whoa..
            'Cos there is no..  Whoa..

          Bridge part 2 :

          E|-----------------------------------------|---------------|----7-7-7-----|
          B|-----------------------------------------|---------------|----8-8-8-----|
          G|---7---7------7----6-4----2-----4-----4--|-4-----4----4--|----9-9-9-etc-|
          D|---7---7------------------------4-----4--|-4-----4----4--|----9-9-9-----|
          A|---5---5------------------------2-----2--|-2-----2----2--|--------------|
          E|-----------------------------------------|---------------|-0-0----------|
            ...Not right, It's a fu - cking out - cry  Kil - ling the  right

          Chorus :

             C                   G
          E|--0------------------3-------------|-------------------3---4~-|
          B|--1------------------3-------------|--3-5---6~-------6--------|
          G|--0------------------0-------------|--------------------------|
          D|--2------------------0-------------|--------------------------|
          A|--3------------------2-------------|--------------------------|
          E|---------------------3-------------|--------------------------|
            ..mistake, no reason why

          Chorus riff #1

          E|-------------------------------|
          B|-------------------------------|
          G|---5-3-2-5~--0-6h7p6-----------|
          D|---------------------7-----9-9-|
          A|-0---------------------8~--9-9-|
          E|---------------------------7-7-|

          After repeating the verse again, play a C chord over the lyrics :
          "Misery cemented"

          Play the part 1 & 2 of the bridge

          Play the chorus 2 times

          Chorus riff #2

          E|------------------------|
          B|------------------------|
          G|---5-4-2-4~-----7-5-4-5-| This then leads into the solo :
          D|------------------------|
          A|-0-----------0----------|
          E|------------------------|

          Solo :

          ! = vibrate + pinch harmonic

          E|-------------------------------------------|
          B|------------------------------7-10-13-12---|
          G|---5!-4-2-4~---7-5-4-5\-5-7-8------------9-|
          D|-------------------------------------------|
          A|-0-----------0-----------------------------|
          E|-------------------------------------------|

          E|-------------------10-8-7-8~---8/10-----------------|
          B|-10-12-13---12~---------------------9-------------9-|
          G|----------9------9--------------------10-7---7-10---|
          D|-------------------------------------------9--------|
          A|----------------------------------------------------|
          E|----------------------------------------------------|

          E|-------------------------------------8-11-10---|
          B|--------------------------------7-10---------8-|
          G|-0-8-7-5-7~--0-10-8-7-8~---8-10----------------|
          D|-----------------------------------------------|
          A|-----------------------------------------------|
          E|-----------------------------------------------|

          #12# = you can also play this note for the same tone. you decide which note
          to play - it depends how fast you can move around the fretboard ;)

          E|-8-10-11-8-11~------13-11-10-11----------------------------------------------------|
          B|----------------8--------------------12-9----------9-12-15p12----------------------|
          G|---------------#12#-------------/-10------10----10------------13----------------13-|
          D|---------------------------------------------12------------------15-12----12-15----|
          A|-----------------------------------------------------------------------14----------|
          E|-----------------------------------------------------------------------------------|

          Post-solo :

          * = play chord 8 times
          . = palm mute notes with a . underneath

          E|--------------------|---------|------------------------------|
          B|--------------------|---------|------------------------------|
          G|-----------------4*-|---------|------------------------------|
          D|-----2---4---5---4*-|(2 times)|-----2---4---5---8---7---5~-\-|
          A|-3-3---3---3---3-2*-|---------|-3-3---3---3---3--------------|
          E|--------------------|---------|------------------------------|
          pm . .   .   .   .                . .   .   .   .   .   .

          Final verse :

          E|-----------------------------------------|
          B|-----------------------------------------|
          G|-10-10---10-10---10-10---10-10---10---10-|
          D|-10-10---10-10---10-10---10-10---10---10-|
          A|-8--8----8--8----8--8----8--8----8----8--|
          E|-----------------------------------------|
            Taxi....                         get  me

          E|-------------------------------|
          B|-------------------------------|
          G|-9-9---9-9---9-9---9-9---9---9-|
          D|-9-9---9-9---9-9---9-9---9---9-|
          A|-7-7---7-7---7-7---7-7---7---7-|
          E|-------------------------------|
             out                         of

          E|-------------------------------|
          B|-------------------------------|
          G|-7-7---7-7---7-7---7-7---7---7-|
          D|-7-7---7-7---7-7---7-7---7---7-|
          A|-5-5---5-5---5-5---5-5---5---5-|
          E|-------------------------------|
             here

          E|--------------------------------------------|
          B|--------------------------------------------|
          G|-10-10---10-10---10-10---10-10---10-8-10-12-|
          D|-10-10---10-10---10-10---10-10---10-8-10-12-|
          A|-8--8----8--8----8--8----8--8----8--7-8--10-|
          E|--------------------------------------------|
             The voices....

          E|-----------------------------------------|
          B|-----------------------------------------|
          G|-13-13---13-13---13-13---13-13---13---13-|
          D|-13-13---13-13---13-13---13-13---13---13-|
          A|-11-11---11-11---11-11---11-11---11---11-|
          E|-----------------------------------------|
            To turn and forget..

          *This is the acoustic guitar part*
          This bit is too hard to get exact. Just pick random notes from these
          chords and it will sound fine.

            C#min                    C
          E|-4-----------------------3-|
          B|-5-----------------------5-|
          G|-6-----------------------5-|
          D|-6-----------------------5-|
          A|-4-----------------------3-|
          E|---------------------------|
             But I don't want..  any more..

          Final Chorus :

                           {      palm mute this bit       }
          E|--------------|---------------------------------|
          B|--------------|---------------------------------|
          G|-7---7----7---|-9-9-9-9-9-9-9-9-7-7-7-7-7-7-7-7-|
          D|-7---7----5---|-9-9-9-9-9-9-9-9-7-7-7-7-7-7-7-7-|
          A|-5---5----5---|-7-7-7-7-7-7-7-7-5-5-5-5-5-5-5-5-|
          E|--------------|---------------------------------|
             Kil ling the   I don't wanna.. stolen boy

          The rest of the chorus is much the same as before, with some extra lead fills which
          I don't have time to tab out right now...

          For the "whoa, Killing the right" bit.. :

          E|------------------------------------------------------------|
          B|------------------------------------------------------------|
          G|-7--------------------------7-7---5-7-7---7-7---7-7---7---7-|
          D|-7-------5------------------7-7---5/7-7---7-7---7-7---7---7-|
          A|-5-------5------------------5-5---3/5-5---5-5---5-5---5---5-|
          E|---------3--------------------------------------------------|
             Whoa    ooah   killing the right

          Outro :

          E|-----------------------------------|
          B|-----------------------------------|
          G|-9-9--------8-8-8-9-\--------------|
          D|-9-9-9-9-10-8-8-8-9-\-{slide down}-|
          A|-7-7-9-9-10-6-6-6-7-\--------------|
          E|-----7-7-8-------------------------|


The Living End albums
2003 Modern Artillery
2000 Roll On
1998 Hellbound: It's for Your Own Good
1998 The Living End
Roll On tabs
01Roll On tabbass tab
02Pictures in the Mirror tabbass tab
03Riot on Broadway tabbass tab
05Carry Me Home tabbass tab
06Don't Shut the Gate tabbass tab
07Dirty Man tabbass tab
08Blood on Your Hands tabbass tab
09Revolution Regained tabbass tab
11Read About It tabbass tab
12Killing the Right tabbass tab
13Astoria Paranoia tabbass tab
14Uncle Harry tabbass tab
15Prisoner of Society tabbass tab

 

1