Search tabs:
Browse artists: 0-9 | A | B | C | D | E | F | G | H | I | J | K | L | M | N | O | P | Q | R | S | T | U | V | W | X | Y | Z
/ The Living End / Roll On (2000) / Prisoner of Society guitar tab

PRISONER OF SOCIETY

/= slide up
\= slide down
h= hammer on
p= pull off
pm= palm mute
x= dead note




Intro:

e---------------------------------|
b---------------------------------|
g-9---------------------2p0-2/----|
d-9-----6-----7-----8---2p0-2/----| x3
a-7-----6-----7-----8-------------|
e---0-0-4-0-0-5-0-0-6-0-----------|

e--------------------------------0--|
b--------------------------------0--|
g-9---------------------2p0-2p0--2--|
d-9-----6-----7-----8---2p0-2p0--2--|
a-7-----6-----7-----8------------0--|
e---0-0-4-0-0-5-0-0-6-0-------------|

Pre Verse:

e---------------------------------------------------------------|
b---------------------------------------------------------------|
g------------2--2---2-2-2--5--5---5-5-5--7--7---7-7-7--9-9--9---|
d------------2--2---2-2-2--5--5---5-5-5--7--7---7-7-7--9-9--9---|
a-Pickslide--0--0---0-0-0--3--3---3-3-3--5--5---5-5-5--7-7--7---|
e---------------------------------------------------------------|



Verse:

e-----------------------------------------------------------------|
b-----------------------------------------------------------------|
g-2--------------2---------------2--------------------------------|
d-2--------------2---------------2--------------------------------| x2
a-0--0-0-0-0-0-0-0--0-0-0-0-0-0--0-0-0-0-0-0-0-0-0-0-0-0-0--------|
e-----------------------------------------------------------------|
     pm.........    ............    ......................



e-----------------------------------------------------------------|
b-----------------------------------------------------------------|
g-5-------------------------------7-----------------9--9-9--9-9---|
d-5-------------------------------7-----------------9--9-9--9-9---|
a-3-3-3-3-3-3-3-3-3-3-3-3-3-3-3---5-5-5-5-5-5-5-5---7--7-7--7-7---|
e---------------------------------------------------0--0-0--0-0---|
    pm.........................     .............



e----------------------------------------------------------------|
b----------------------------------------------------------------|
g-2--------------2---------------2-------------------------------|
d-2--------------2---------------2-------------------------------|
a-0-0-0-0-0-0-0--0-0-0-0-0-0-0---0--0-0-0-0-0---3-2p0---2p0------|
e-----------------------------------------------------3-----3p0--|
    pm.........    ...........      .........


Chorus

e----------------------------------------------------------------|
b----------------------------------------------------------------|
g-2-2---2-2-2---2-2-2---2-2-2--2-5-5---5-5-5---5-5-5---5-5-5\----|
d-2-2---2-2-2---2-2-2---2-2-2--2-5-5---5-5-5---5-5-5---5-5-5\----|
a-0-0---0-0-0---0-0-0---0-0-0--0-3-3---3-3-3---3-3-3---3-3-3\----|
e----------------------------------------------------------------|



e-------------------------3-3-----------------------------------|
b-------------------------3-3--2-2---2-2-2---2-2-2--------------|
g-------------------------4-4--2-2---2-2-2---2-2-2--------------|
d-3-3---3-3-3---3-3-3---3-5-5--2-2---2-2-2---2-2-2--------------|
a-3-3---3-3-3---3-3-3---3-5-5--0-0---0-0-0---0-0-0---0-2-4-0----|
e-1-1---1-1-1---1-1-1---1-3-3-----------------------------------|


e--2-2---2-2-2---2-2-2--2-2--------------------------------------------|
b--3-3---3-3-3---3-3-3--3-3--------------------------------------------|
g--2-2---2-2-2---2-2-2--2-2--------3-3-3-3--3-3-3-3--3-3-3-3-----------|
d--0-0---0-0-0---0-0-0--0-0--------3-3-3-3--3-3-3-3--3-3-3-3-----------|
a-----------------------------3-0--1-1-1-1--1-1-1-1--1-1-1-1--1-0------|
e-----------------------------------------------------------------3-1--|




e----1-------1-------1-------1---1------------------------------------------|
b----1-------1-------1-------1---1------------------------------------------|
g----2-------2-------2-------2---2---9-9----9----9-9----9----9-9----9----9--|
d--3-3---3-3-3---3-3-3---3-3-3---3---9-9----9----9-9----9----9-9----9----9--|
a--3-3---3-3-3---3-3-3---3-3-3---3---7-7----7h8--7-7----7h8--7-7----7h8--7--|
e--1-1---1-1-1---1-1-1---1-1-1---1---0-0----0----0-0----0----0-0----0----0--|



Pre-verse

e-----------------------------------|
b-----------------------------------|
g--9----------------------2p0-2\----|
d--x-----6-----7-----8----2p0-2\----| x2
a--7-----6-----7-----8--------------|
e----0-0-4-0-0-5-0-0-6-0------------|


Verse

Chorus

Bridge

e-------------------------------|
b-2-2-3-3-2-2-------------------|
g-2-2-3-3-2-2-------------------|
d-2-2-3-3-2-2-------0h2p0-------| x2
a-0-0-0-0-0-0--0h2h3------3p2---|
e-------------------------------|

e-------------------------------|
b--3-3-4-4-3-3------------------|
g--2-2-3-3-2-2--------0h2p0-----|
d--0-0-5-5-0-0--0h2h3------3p2--|
a-------------------------------|
e-------------------------------|


e------------------------------------------|
b-2-2-3-3-2-2------------------------------|
g-2-2-3-3-2-2-------------------1-1-2-2----|
d-2-2-3-3-2-2--------0h2p0------2-2-3-3----|
a-0-0-0-0-0-0--0h2h3-------2p0--2-2-3-3----|
e-------------------------------0-0-1-1----|



Solo: Hold the bend Up for the first bit

e-----0-0-0-----0-0-0-----0-0-0----------------------5--------------------------|
b-----0-0-0-----0-0-0-----0-0-0--0-------------------5--7^---7^v-5---5^---------|
g--3^-3-3-3--3^-3-3-3--3^-3-3-3--3^v\2p0-2p0---0--------7^---7^v-5-0-5^---------|
d--------------------------------------------2---------------------0-----7p5-7--|
a-------------------------------------------------\7----------------------------|
e-------------------------------------------------------------------------------|



e--------5-----6-----5-----4-----5-----7-----8-----9------------|
b-------5-----6-----5-----4-----5-----6-----7-----8---9/10--x---|
g----5h6---6h7---5h6---4h5---5h6---6h7---7h8---8h9----------x---|
d---------------------------------------------------------------|
a---------------------------------------------------------------|
e---------------------------------------------------------------|



e-------------------------------------------------------------------------|
b-----12p10----10-------12p10----10-------12p10----10-------10------------|
g-----12p10----10h11----12p10----10h11----12p10----10h11----10h11---------|
d--12-------12-------12-------12-------12-------12-------12--------12-12--|
a-------------------------------------------------------------------------|
e-------------------------------------------------------------------------|



e-------------------------------------------------------------12-15-14-12-----------------|
b----------------------------------------------------12-13-15-------------15-14-13-12-----|
g-------------------------9h10p9----9-10-12-9--11/14----------------------------------14--|
d-------9h10p9----9-10-12--------12-------------------------------------------------------|
a-10\12--------12-------------------------------------------------------------------------|
e-----------------------------------------------------------------------------------------|



e-----------------------------------------------------------------|
b-----------------------------------------------------------------|
g--9------10------12------14------14------15------17------19------|
d--x-(8x)--x-(8x)--x-(8x)--x-(8x)--x-(8x)--x-(8x)--x-(8x)--x-(8x)-|
a--7-------8------10------12------12------13------15------17------|
e--0-------0-------0-------0-------0-------0-------0-------0------|



e-12------13-------15-------17--------------------------|
b--x-(8x)--x-(8x)---x-(8x)---x-(8x)---------------------|
g--9------10-------12-------14--------9-9-9-9-9-9-9-9\--|
d-------------------------------------9-9-9-9-9-9-9-9\--|
a-------------------------------------7-7-7-7-7-7-7-7\--|
e-------------------------------------0-0-0-0-0-0-0-0---|



Last Verse:

e--------------------------------------------------------|
b--------------------------------------------------------|
g-2--2--2--2--2--2--2--2-2-------5--5--5--5--7--7--7--7--|
d-2--2--2--2--2--2--2--2-2-(2x)--5--5--5--5--7--7--7--7--|
a-0--0--0--0--0--0--0--0-0-------3--3--3--3--5--5--5--5--|
e--------------------------------------------------------|



e---------------------------------------------------------|
b---------------------------------------------------------|
g-2--2--2--2--2--2--2--2-2--------5--5--5--5--7--7--7--7--|
d-2--2--2--2--2--2--2--2-2-(3x)---5--5--5--5--7--7--7--7--|
a-0--0--0--0--0--0--0--0-0--------3--3--3--3--5--5--5--5--|
e---------------------------------------------------------|



e--5-5--------5-----5----------------|
b--5-5--5--5--5--5--5-5--------------|
g-------7^-7^----7^---5--7^v-5-------|
d-------------------------------7-7--|
a------------------------------------|
e------------------------------------|



Last Chorus:

e--------------------------------------------------------------------|
b--------------------------------------------------------------------|
g--2-2-------2---------2---------2--5-5-------5---------5---------5--|
d--2-2--2-2--2--2-2-2--2--2-2-2--2--5-5--5-5--5--5-5-5--5--5-5-5--5--|
a--0-0--0-0--0--0-0-0--0--0-0-0--0--3-3--3-3--3--3-3-3--3--3-3-3--3--|
e--------------------------------------------------------------------|
        pm.     .....     .....          ...     ....      .....



e-----------------------------------------------------------0-0-0-0--|
b-----------------------------------------------------------2-2-2-2--|
g-----------------------------------2-2-2-2-2-2-2-2-2-2-2-2-2-2-2-2--|
d--3-3-------3---------3---5-5-5-5--2-2-2-2-2-2-2-2-2-2-2-2-2-2-2-2--|
a--3-3--3-3--3--3-3-3--3---5-5-5-5--0-0-0-0-0-0-0-0-0-0-0-0-0-0-0-0--|
e--1-1--1-1--1--1-1-1--1---3-3-3-3-----------------------------------|
        pm.     .....      ........................



e-----------------------------------1--1--1--1-1-1----0-----------------|
b-7--7--7--7-7-7---3--3--3--3-3-3---1--1--1--1-1-1----0-----------------|
g-7--7--7--7-7-7---3--3--3--3-3-3---2--2--2--2-2-2----1-----------------|
d-7--7--7--7-7-7---3--3--3--3-3-3---3--3--3--3-3-3----2-----------------|
a-5--5--5--5-5-5---1--1--1--1-1-1---3--3--3--3-3-3----2-----------------|
e-----------------------------------1--1--1--1-1-1----0------pickslide--|



Outro
e-------------------------------|
b-------------------------------|
g--9--9----9-9--------------9---|
d--9--9----9-9----(7x)------9---|
a--7--7h8--7-7h8------------7---|
e--0--0----0-0--------------0---|


Tabbed by Jason Zarpellon
jason_zarps@hotmail.com
www.thelivingendtabpage.cjb.net


The Living End albums
2003 Modern Artillery
2000 Roll On
1998 Hellbound: It's for Your Own Good
1998 The Living End
Roll On tabs
01Roll On tabbass tab
02Pictures in the Mirror tabbass tab
03Riot on Broadway tabbass tab
05Carry Me Home tabbass tab
06Don't Shut the Gate tabbass tab
07Dirty Man tabbass tab
08Blood on Your Hands tabbass tab
09Revolution Regained tabbass tab
11Read About It tabbass tab
12Killing the Right tabbass tab
13Astoria Paranoia tabbass tab
14Uncle Harry tabbass tab
15Prisoner of Society tabbass tab

 

1