Search tabs:
Browse artists: 0-9 | A | B | C | D | E | F | G | H | I | J | K | L | M | N | O | P | Q | R | S | T | U | V | W | X | Y | Z
/ / / guitar tab

Song: It's You
Artist: Michelle Branch
Album: Hotel Paper
Tabbed by: Lendon (lmwall25@yahoo.com)

This might be my favorite song off this CD. This tab is pretty accurate, but I doubt it's
perfect, so bear with me.


Capo: 4


Intro:
|-2---5-------2---|
|---------3-------|
|-----------------|
|-----------------|
|-----------------|
|-----------------|

|-----2---------0-----------0----------|
|-------3---------3-----3-----3--------|
|---2---------2-------0---0-----0------|
|-0---------4---------------------0----|   x2
|--------------------------------------|
|--------------------------------------|


Verse:
|-----2---------0-----------0----------|
|-------3---------3-----3-----3--------|
|---2---------2-------0---0-----0------|
|-0---------4---------------------0----|
|--------------------------------------|
|--------------------------------------|


Chorus:
|-----0---------0-----------0----------|
|-------3---------3-----3-----3--------|
|-------------------------0-----0------|
|---0---------0------------------------|
|-2---------0---------------------0----|
|---------------------3----------------|

Final chord (appegiated):
|-------2------------------------------|
|------3-------------------------------|
|-----2--------------------------------|
|----0---------------------------------|
|---0----------------------------------|
|--x-----------------------------------|




Guitar 2 (electric) Solo:
|--------------------------------------|
|--------------------------------------|
|--------------------------------------|
|--7--9-------7--9---------------------|
|--------5----------5------------------|
|--------------------------------------|
  ^--during chorus---^

|--------------------------------------|
|---------------7-7---10---------------|
|------7-9--9------------7-------------|
|--7h9---------------------------------|
|--------------------------------------|
|--------------------------------------|

|--------------------------------------|
|--------------7-----------------------|
|--7---9-7-7---------------------------|
|-----------------9--------------------|
|--------------------------------------|
|--------------------------------------|



Well, that's it. This is my first full tab, done all by myself. I'm pretty sure about the
solo, but I may be off by a note or two.


albums
tabs

 

1