Search tabs:
Browse artists: 0-9 | A | B | C | D | E | F | G | H | I | J | K | L | M | N | O | P | Q | R | S | T | U | V | W | X | Y | Z
/ / / guitar tab

MORBID ANGEL - LORD OF ALL FEVERS AND PLAGUE
                  1989 - ALTARS OF MADNESS
                  Version 1.0 - May 2001

Tabbed by Bobby Rafuse (azagthoth_666@corpsemail.com)

Tuning - 1/2 step down (Eb)  (Eb, Ab, Db, Gb, Bb, Eb)

*  - palm mute
/  - slide up
\  - slide down
h  - hammer on
sb - slight bend
r  - release bend
"  - tremolo pick
p  - pull off
~  - vibrato


*NOTE* Listen to the song for the timings and there's
alot of riffs I'm unsure of so any corrections are welcome.
I also haven't tabbed any solos (cause I'm shitty at lead)
to sorry about that. Hope this works out for ya.

LORD OF ALL FEVERS AND PLAGUE

Intro A (unsure)  (3x's)
|----------------|
|----------------|
|----------------|
|----------------|
|-3/4--3--2-4-3--|
|-1/2--1--0-2-1--|
         * *


Intro B
|----------------|
|----------------|
|----------------|
|----------------|
|-3/4--3-/-4~-\--|
|-1/2--1-/-2~-\--|


Figure A
|--------------------|
|--------------------|
|--------------------|
|--------------------|
|-3----2--------9\8--|
|-1-00-0-000000-7\6--|
    **   ******


Figure B (unsure)
|-----------------------|
|-----------------------|
|-----------------------|
|-----------------------|
|-4h5h6"sbr-5"----------|
|---------------4h5\3"--|


Figure C
|----------------------------|
|----------------------------|
|----------------------------|
|--------------------5--7-6--|
|-5--4--2---2h3-2~~~-3--5-4--|
|-3--2--0--------------------|
        *


Figure D1
|------------------------------------|
|------------------------------------|
|------------------------------------|
|------------------------------------|
|------------------------------7-10--|
|-0--5-2~~-0--5-2~~-0--5-2~~-0-5--8--|
  *        *        *        *


Figure D2
|------------------------------------|
|------------------------------------|
|------------------------------------|
|------------------------------------|
|------------------------------7--8--|
|-0--5-2~~-0--5-2~~-0--5-2~~-0-5--6--|
  *        *        *        *


Figure E
|-------------------|
|-------------------|
|-------------------|
|-------------------|
|----------3--4--5--|
|-00000000-1--2--3--|
  ********


Solo Rhythm
|-------|
|-------|
|-------|
|-????--|
|-????--|
|-????--|


there. that's the majority of the riffs in the song.


albums
tabs

 

1