Search tabs:
Browse artists: 0-9 | A | B | C | D | E | F | G | H | I | J | K | L | M | N | O | P | Q | R | S | T | U | V | W | X | Y | Z
/ / / guitar tab

Band: Morbid Angel
Title: Maze Of Torment
Tabber: Sqweeky

Riff 1a
|--------------------------------|----------------------------|
|--------------------------------|----------------------------|
|--------------------------------|----------------------------|Gtr
|---------9--9-9-----------------|---------9--9--------12-11--| I
|---------7--7-7-------7h8-7(tr8)|---------7--7-10--9--10--9--|
|-0-0-0-0--------0-0-0-----------|-0-0-0-0-------8--7---------|
| . . . .        . . .             . . . .
|
|-------------------------------------------------------------|
|-------------------------------------------------------------|
|----------------------9h10-9(tr10)---------------------------|Gtr
|-------------------------------------------------------------| II
|-------------------------------------------------------------|
|-------------------------------------------------------------|
|
|1b
|--------------------------------|---------------------------|
|--------------------------------|---------------------------|
|--------------------------------|---------------------------|Gtr
|---------9--9-9-----------------|---------9--9--------------| I
|---------7--7-7-------7h8-7(tr8)|---------7--7-10--9--5--4--|
|-0-0-0-0--------0-0-0-----------|-0-0-0-0-------8--7--3--2--|
| . . . .        . . .             . . . .
|
|------------------------------------------------------------|
|------------------------------------------------------------|
|----------------------9h10-9(tr10)--------------------------|Gtr
|------------------------------------------------------------| II
|------------------------------------------------------------|
|------------------------------------------------------------|


Riff 1a + 1b 1tx
Riff 1a + 1b 2tx (both guitars)


Riff 2a
|------------------|------------------|
|------------------|------------------|
|------------------|------------------|Gtr
|------------------|------------------| I
|------------------|------------------|
|-0000333322223333-|-1111333322223333-|


Riff 2a 1tx


Riff 2b
|------------------|------------------|
|------------------|------------------|
|------------------|------------------|Gtr
|------------------|------------------| I
|------------------|------------------|
|-0000333322223333-|-1111333322223333-|
|
|------------------|------------------|
|------------------|------------------|
|------------------|------------------|Gtr
|------------------|------------------| II
|-2---2---2---2----|-2---2---2---2----|
|-0---0---0---0----|-0---0---0---0----|
  .   .   .   .      .   .   .   .


Riff 2c
|-------------------------|-------------------------|
|-------------------------|-------------------------|
|-------------------------|-------------------------|Gtrs
|-------------------------|-------------------------|I&II
|-2-----5-----4-----5-----|-3-----5-----4-----5-----|
|-0-000-3-333-2-222-3-333-|-1-111-3-333-2-222-3-333-|
    ...   ...   ...   ...     ...   ...   ...   ...


Riff 2c 1tx


Riff 3
|------------------------------------|-------------------------------------|
|------------------------------------|-------------------------------------|
|------------------------------------|-------------------------------------|Gtrs
|--------------------------------7/9-|-----------------------------3-5-6~--|I&II
|-----8\7-----8\7-----8\7-----8--5/7-|-----8\7-----8\7-----8\7-------------|
|-000-6\5-000-6\5-000-6\5-000-6------|-000-6\5-000-6\5-000-6\5-000-1-3-4~--|
  ...     ...     ...     ...          ...     ...     ...     ...


Riff 3 2tx


Riff 4
|--------------------------------------|------------------------------------|
|--------------------------------------|------------------------------------|
|-----------------------------9/10-9\8-|------------------------------------|Gtrs
|--------------------------------------|------------------------------------|I&II
|-----8\7-----8\7-----8\7-----7/-8-7\6-|-----8\7-----8\7-----8\7-----3-5-6--|
|-000-6\5-000-6\5-000-6\5-000----------|-000-6\5-000-6\5-000-6\5-000-1-3-4--|
  ...     ...     ...     ...            ...     ...     ...     ...


Riff 4 1tx
Riff 2c 2tx
Riff 4 2tx


Riff 5
|--------------|--------------|
|--------------|--------------|
|--------------|--------------|Gtrs
|--------------|--------------|I&II
|--------------|--------------|
|-111111111111-|-222222222222-|


Riff 5 3tx
Riff 2c 2tx
Riff 3 2tx
Riff 5 4tx
Riff 3 4tx


Riff 6
|------------------------------|---------------------------|
|------------------------------|---------------------------|
|------------------------------|---------------------------|Gtrs
|------------------------------|------------------4--5--3--|I&II
|-3------3------3--------------|-3------3------3--2--3--1--|
|-1--0-0-1--0-0-1--0-0-2-3-2-3-|-1--0-0-1--0-0-1-----------|
     . .    . .    . . . . . .      . .    . .


Riff 6 3tx


Riff 7
|------------------------------|--------------------------------------|
|------------------------------|-----------7-/8--6--------------------|
|-----------9-\8--9~-----------|--------------------------------------|Gtrs
|------------------------10--\-|-----------4-/5--3--------6-/7--6--5--|I&II
|-2---2--2--7-\6--7~-----10--\-|-2---2--2-----------------4-/5--4--3--|
|-0---0--0----------------8--\-|-0---0--0-----------0--0--------------|
  .   .  .                       .   .  .           .  .


Riff 7 1tx
Riff 1a + 1b 1tx
Riff 3 6tx
Riff 5 4tx
Riff 2c 2tx


albums
tabs

 

1