Search tabs:
Browse artists: 0-9 | A | B | C | D | E | F | G | H | I | J | K | L | M | N | O | P | Q | R | S | T | U | V | W | X | Y | Z
/ / / guitar tab

Song: Brainstorm
Artist: Morbid Angel
Album: Blessed are the Sick (1991, Earache)

Tabbed by Chris Rezendes (dudemcrude@yahoo.com)
Date started tab: 9/30/04
Date finished tab: 3/24/05

Tuning: Eb
Copy: First

Notation Key
~  : vibrato
^  : bend
.  : palm mute
r  : release
t  : trill
p  : pull-off
h  : hammer-on
x  : ghost note
/  : slide up
\  : slide down
>< : pinch harmonics

Comments:

================================================================================

Fill 1 x1
e|-------|
B|-------|
G|-------|
D|-------|
A|--9-7--|
E|--7-5--|

Riff 1A x3
e|------------------|-----------------|-------------------|-----------------|
B|------------------|-----------------|-------------------|-----------------|
G|------------------|-----------------|-------------------|-----------------|
D|------------------|-----------------|-------------------|-----------------|
A|--6------7-----6--|--9------8-------|--7-----6-7-----6--|--9------7-------|
E|--444444-55555-4--|--777777-666666--|--55555-4-55555-4--|--777777-555555--|

Riff 1B x1
e|------------------|-----------------|-------------------|-------------------|
B|------------------|-----------------|-------------------|-------------------|
G|------------------|-----------------|-------------------|-------------------|
D|------------------|-----------------|-------------------|-------------------|
A|--6------7-----6--|--9------8-------|--7-----6-7-----6--|--9------7------6--|
E|--444444-55555-4--|--777777-666666--|--55555-4-55555-4--|--777777-555555-4--|

            TIME- 0:16

Fill 2 x1
e|---------|
B|---------|
G|---------|
D|--5-4-3--|
A|--5-4-3--|
E|--3-2-1--|

Riff 2 x6
e|-------------------------------|
B|-------------------------------|
G|------------------------5-4-3--|
D|------------------------5-4-3--|
A|------------------------3-2-1--|
E|--1-2222211-4444411-222--------|

            TIME- 0:30

Riff 3A x1
e|--------------------|--------------------|
B|--------------------|--------------------|
G|--------------------|--------------------|
D|---------------5h6--|---------------6h7--|
A|--555--7/8\6\5------|--555--7/8\6\5------|
E|--------------------|--------------------|

e|--------------------|----------------------|
B|--------------------|----------------------|
G|--------------------|----------------------|
D|---------------5h6--|----------------------|
A|--555--7/8\6\5------|--555--7\8-5-4-----3--|
E|--------------------|---------------3-2-1--|
*Note: When I play the part where you slide, I usually pick the
notes individually instead, that's not the way it's played on the
album, but you might want to try it that way, too.

            TIME- 0:34

Riff 2 x6
e|-------------------------------|
B|-------------------------------|
G|------------------------5-4-3--|
D|------------------------5-4-3--|
A|------------------------3-2-1--|
E|--1-2222211-4444411-222--------|

            TIME- 0:47

Riff 3B x3
e|--------------------|------------------|
B|--------------------|------------------|
G|--------------------|------------------|
D|---------------5h6--|------------------|
A|--555--7/8\6\5------|--555--6/7\6\4----|
E|--------------------|---------------5--|

Riff 3C x1
e|--------------------|----------------|
B|--------------------|----------------|
G|--------------------|----------------|
D|---------------5h6--|----------------|
A|--555--7/8\6\5------|--555--6/7\6\4--|
E|--------------------|----------------|

            TIME- 0:55

Fill 3 x1
e|-------|
B|-------|
G|-------|
D|--5-4--|
A|--5-4--|
E|--3-1--|

Riff 1C x1
e|------------------|-----------------|-------------------|-----------------|
B|------------------|-----------------|-------------------|-----------------|
G|------------------|-----------------|-------------------|-----------------|
D|------------------|-----------------|-------------------|-----------------|
A|--3------4-----3--|--6------5-------|--4-----3-4-----3--|--6------4-------|
E|--111111-22222-1--|--444444-333333--|--22222-1-22222-1--|--444444-222222--|

Riff 1D x1
e|------------------|-----------------|-------------------|-------------------|
B|------------------|-----------------|-------------------|-------------------|
G|------------------|-----------------|-------------------|-------------------|
D|------------------|-----------------|-------------------|-------------------|
A|--3------4-----3--|--6------5-------|--4-----3-4-----3--|--6------4------3--|
E|--111111-22222-1--|--444444-333333--|--22222-1-22222-1--|--444444-222222-1--|

            TIME- 1:03

Fig. 1 x2
e|-----------------------------|-------------------------------|
B|-----------------------------|-------------------------------|
G|-----------------------------|-------------------------------|
D|-----------------------------|-------------------------------|
A|--3-3-3--4-3-3--6--3--4-3-3--|--4-4-4--5-5-5--6--3--4-4-3p2--|
E|--1-1-1--2-1-1--4--1--2-1-1--|--2-2-2--3-3-3--4--1--2-2------|
*Note: The last two notes are barely audible, you can leave them
out if you want

            TIME- 1:11

Riff 4 x3
e|-----------------------------------|---------------------------------------|
B|-----------------------------------|---------------------------------------|
G|-----------------------------------|---------------------------------------|
D|-----------------------------------|---------------------------------------|
A|----------------------------5/6-6--|----------------------------5h8p5h8p5--|
E|--4444444-7777-6666-5555555--------|--4444444-7777-6666-5555555------------|

Fill 4
e|---------------------|-----|
B|---------------------|-----|
G|---------------------|-----|
D|---------------------|-----|
A|--6---9--8--6/7-7-7--|-----|
E|--4---7--6--4/5-5-5--|--4--|

            TIME- 1:28

Fig. 2 x1
 |                                  Guitar 1                                 |
e|-------------------------------------|-------------------------------------|
B|-------------------------------------|-------------------------------------|
G|-------------------------------------|-------------------------------------|
D|-------------------------------------|-------------------------------------|
A|-------------------------------------|-------------------------------------|
E|--1-4-3-1--2-1-1-3--1-4-3-1--2-1-3~--|--1-4-3-1--2-1-1-4--1-4-3-1--3-1-2~--|
 |                                                                           |
 |                                  Guitar 2                                 |
e|-------------------------------------|-------------------------------------|
B|-------------------------------------|-------------------------------------|
G|-------------------------------------|-------------------------------------|
D|-----------4-----5-----------4---5~--|-----------4-----6-----------5---4~--|
A|-------------------------------------|-------------------------------------|
E|-------------------------------------|-------------------------------------|


 |                                 Guitar 1                                 |
e|-------------------------------------|------------------------------------|
B|-------------------------------------|------------------------------------|
G|-------------------------------------|------------------------------------|
D|-------------------------------------|------------------------------------|
A|-------------------------------------|------------------------------------|
E|--1-4-3-1--2-1-1-3--1-4-3-1--2-1-3~--|--1-4-3-1--2-1-1-4--1-4-3-1--3-1-2--|
 |                                                                          |
 |                                 Guitar 2                                 |
e|-------------------------------------|------------------------------------|
B|-------------------------------------|------------------------------------|
G|-------------------------------------|------------------------------------|
D|-----------4-----5-----------4---5~--|-----------4-----6-----------5------|
A|-------------------------------------|------------------------------------|
E|-------------------------------------|------------------------------------|

            TIME- 1:43

Fig. 3A x2             |     *NOTE*      |
e|---------------------|-----------------|---------------------|---------------|
B|---------------------|-----------------|---------------------|---------------|
G|---------------------|-----------------|---------------------|---------------|
D|---------------------|--4/6\5/8\7/9\8--|---------------------|---------------|
A|--3/4--4--7\6---6\5--|-----------------|--3/4--4--7\6---6\5--|--6/8\5\4/5\4--|
E|--1/2--2--5\4---4\3--|-----------------|--1/2--2--5\4---4\3--|---------------|

            TIME- 1:52 (72.7%)

Fig. 4 x2
e|---------------|-----------------|---------------|------------------|
B|---------------|-----------------|---------------|------------------|
G|------7--------|------7----------|------7--------|------7-----------|
D|---------------|-----------------|---------------|------------------|
A|------5--------|------5----------|------5--------|------5--4/5/8\7--|
E|--3-3---3\2-1--|--3-3---2/3/6\5--|--3-3---3\2-1--|--3-3-------------|

            TIME- 2:00

Fig. 3B x4
e|---------------------|----------------|---------------------|---------------|
B|---------------------|----------------|---------------------|---------------|
G|---------------------|--34543---------|---------------------|---------------|
D|---------------------|--------54->3<--|---------------------|---------------|
A|--3/4--4--7\6---6\5--|----------------|--3/4--4--7\6---6\5--|--6/8\5\4/5\4--|
E|--1/2--2--5\4---4\3--|----------------|--1/2--2--5\4---4\3--|---------------|

            TIME- 2:16

Riff 1C x3
e|------------------|-----------------|-------------------|-----------------|
B|------------------|-----------------|-------------------|-----------------|
G|------------------|-----------------|-------------------|-----------------|
D|------------------|-----------------|-------------------|-----------------|
A|--3------4-----3--|--6------5-------|--4-----3-4-----3--|--6------4-------|
E|--111111-22222-1--|--444444-333333--|--22222-1-22222-1--|--444444-222222--|

Riff 1D x1
e|------------------|-----------------|-------------------|-------------------|
B|------------------|-----------------|-------------------|-------------------|
G|------------------|-----------------|-------------------|-------------------|
D|------------------|-----------------|-------------------|-------------------|
A|--3------4-----3--|--6------5-------|--4-----3-4-----3--|--6------4------3--|
E|--111111-22222-1--|--444444-333333--|--22222-1-22222-1--|--444444-222222-1--|

End-
e|-----|---------|
B|-----|---------|
G|--4--|---------|
D|--4--|---------|
A|--2--|---------|
E|-----|--3-2-0--|


albums
tabs

 

1