Search tabs:
Browse artists: 0-9 | A | B | C | D | E | F | G | H | I | J | K | L | M | N | O | P | Q | R | S | T | U | V | W | X | Y | Z
/ / / guitar tab

================================================================================
Song: Rebel Lands
Artist: Morbid Angel
Album: Blessed are the Sick (Earache, 1991)

Tabbed by Chris Rezendes (dudemcrude@yahoo.com)
Date started tab: 9/10/04
Date finished tab: 9/10/04

Tuning: Eb (one half step down)
Copy: First

Notation Key
~  : vibrato
^  : bend
.  : palm mute
r  : release
t  : trill
p  : pull-off
h  : hammer-on
x  : ghost note
/  : slide up
\  : slide down
>< : pinch harmonics

Comments: There are several important things for me to note- #1. You'll HAVE
to listen to the song as you play, because if you don't get the timing just
right, it will sound like absolute shit, #2. Riff 4 sounds a bit muffled by
the solo (don't worry, I'm sure I figured it out just right) I just wanted to
point out that you can play your own little variations on it and it will still
sound pretty good, so have fun with that bit.  This is one of my absolute
favorite songs off of one of my absolute favorite albums.  Great, great stuff.
If I fucked up anywhere, do everybody a favor and let me know so I can fix it.
I'd appreciate it.  Later.
================================================================================

Riff 1 x2
e|-----------|----------|----------|----------|
B|-----------|----------|----------|----------|
G|--------6--|----------|----------|----------|
D|-----------|----------|----------|----------|
A|--8--7--4--|-------5--|-------8--|-------7--|
E|--6--5-----|--4444-3--|--3444-6--|--6666-5--|

e|-----------|----------|--------|--------------|
B|-----------|----------|--------|--------------|
G|--------6--|----------|--------|--8--7--------|
D|-----------|----------|--------|--------8--7--|
A|--8--7--4--|-------5--|--------|--6--5--------|
E|--6--5-----|--4444-3--|--3344--|--------6--5--|

            TIME- 0:08

Riff 2A x1
e|---------------|-----------------|-----|
B|---------------|-----------------|-----|
G|------------4--|-----------------|--5--|
D|---------------|--------------4--|-----|
A|------------2--|-----------------|--3--|
E|--3222-1222----|--0-2444-1333-2--|-----|

Riff 2B x3
e|---------------|-----------------|-----------|
B|---------------|-----------------|-----------|
G|------------4--|-----------------|----5/6-6--|
D|---------------|--------------4--|-----------|
A|------------2--|-----------------|----3/4-4--|
E|--3222-1222----|--0-2444-1333-2--|--0--------|

            TIME- 0:21

Riff 2C x1
e|---------------|-----------------|
B|---------------|-----------------|
G|------------4--|-----------------|
D|---------------|--------------4--|
A|------------2--|-----------------|
E|--3222-1222----|--0-2444-1333-2--|

            TIME- 0:23

Riff 3A x3
e|------------------------------|-----------------------------|
B|------------------------------|-----------------------------|
G|--6/7-7\6------------4--------|--6/7-7\6-----------4--------|
D|------------------------4-----|-----------------------------|
A|--4/5-5\4------------2--------|--4/5-5\4-----------2--------|
E|-----------44444-333----2-222-|----------44444-333---3-2-0--|

Riff 3B x1
e|------------------------------|-------------------------|
B|------------------------------|-------------------------|
G|--6/7-7\6------------4--------|--6/7-7\6-----------4----|
D|------------------------4-----|----------------------5--|
A|--4/5-5\4------------2--------|--4/5-5\4-----------2----|
E|-----------44444-333----2-222-|----------44444-333---3--|

            TIME- 0:39

Riff 2A x1
e|---------------|-----------------|-----|
B|---------------|-----------------|-----|
G|------------4--|-----------------|--5--|
D|---------------|--------------4--|-----|
A|------------2--|-----------------|--3--|
E|--3222-1222----|--0-2444-1333-2--|-----|

Riff 2D x1
e|---------------|-----------------|-----|
B|---------------|-----------------|-----|
G|------------4--|-----------------|--6--|
D|---------------|--------------4--|-----|
A|------------2--|-----------------|--4--|
E|--3222-1222----|--0-2444-1333-2--|-----|

            TIME- 0:46

Riff 2B x2
e|---------------|-----------------|-----------|
B|---------------|-----------------|-----------|
G|------------4--|-----------------|----5/6-6--|
D|---------------|--------------4--|-----------|
A|------------2--|-----------------|----3/4-4--|
E|--3222-1222----|--0-2444-1333-2--|--0--------|

Riff 2E x1
e|---------------|-----------------|
B|---------------|-----------------|
G|------------4--|--------------4--|
D|---------------|-----------------|
A|------------2--|--------------2--|
E|--3222-1222----|--0-2444-1333----|

            TIME- 0:56

Riff 3A x1
e|------------------------------|-----------------------------|
B|------------------------------|-----------------------------|
G|--6/7-7\6------------4--------|--6/7-7\6-----------4--------|
D|------------------------4-----|-----------------------------|
A|--4/5-5\4------------2--------|--4/5-5\4-----------2--------|
E|-----------44444-333----2-222-|----------44444-333---3-2-0--|

Riff 3B x1
e|------------------------------|-------------------------|
B|------------------------------|-------------------------|
G|--6/7-7\6------------4--------|--6/7-7\6-----------4----|
D|------------------------4-----|----------------------5--|
A|--4/5-5\4------------2--------|--4/5-5\4-----------2----|
E|-----------44444-333----2-222-|----------44444-333---3--|

            TIME- 1:03

Fill x1
e|---------|
B|---------|
G|--6/8\7--|
D|---------|
A|--4/6\5--|
E|---------|

Riff 4 x1
e|-------------------------|----------------------|-----------------------|
B|-------------------------|----------------------|-----------------------|
G|--12------11-------------|--9/10\9--12------11--|----------------11\10--|
D|-------------------------|----------------------|-------10/11-11--------|
A|--10-------9-------------|--7/ 8\7--10-------9--|-----------------9\ 8--|
E|-----0000----0000000000--|-------------0000-----|--0000- 8/ 9--9--------|
       ....    ..........                ....        ....

e|-------------------------|----------------------|-------------------------|
B|-------------------------|----------------------|-------------------------|
G|--12------11-------------|--9/10\9--12------11--|-------------------------|
D|-------------------------|----------------------|-------10------10/11-11--|
A|--10-------9-------------|--7/ 8\7--10-------9--|-------------------------|
E|-----0000----0000000000--|-------------0000-----|--0000--8-0000--8/ 9--9--|
       ....    ..........                ....        ....    ....

e|-------------------------|----------------------|-----------------------|
B|-------------------------|----------------------|-----------------------|
G|--12------11-------------|--9/10\9--12------11--|----------------11\10--|
D|-------------------------|----------------------|-------10/11-11--------|
A|--10-------9-------------|--7/ 8\7--10-------9--|-----------------9\ 8--|
E|-----0000----0000000000--|-------------0000-----|--0000--8/ 9--9--------|
       ....    ..........                ....        ....

e|-------------------------|----------------------|-------------------|
B|-------------------------|----------------------|-------------------|
G|--12------11-------------|--9/10\9--12------11--|-------------------|
D|-------------------------|----------------------|-------10------10--|
A|--10-------9-------------|--7/ 8\7--10-------9--|-------------------|
E|-----0000----0000000000--|-------------0000-----|--0000--8-0000--8--|
       ....    ..........                ....        ....    ....

            TIME- 1:19 (50%)

Riff 5 x1
e|-------------------------------|---------------------------|
B|-------------------------------|---------------------------|
G|-------------------------------|---------------------------|
D|-------------------------------|----------------------10\--|
A|----5------4------------2-3-2--|--5------4-----------------|
E|--0-3-0000-2-0000000000-0-1-0--|--3-0000-2-0000000000--8\--|
    .   ....   ..........             ....   ..........

e|-------------------------------|----------------------------|
B|-------------------------------|----------------------------|
G|-------------------------------|----------------------------|
D|-------------------------------|----------------10------5\--|
A|----5------4------------2-3-2--|--5------4------------------|
E|--0-3-0000-2-0000000000-0-1-0--|--3-0000-2-0000--8-0000-3\--|
    .   ....   ..........             ....   ....    ....

e|-------------------------------|---------------------------|
B|-------------------------------|---------------------------|
G|-------------------------------|---------------------------|
D|-------------------------------|----------------------10\--|
A|----5------4------------2-3-2--|--5------4-----------------|
E|--0-3-0000-2-0000000000-0-1-0--|--3-0000-2-0000000000--8\--|
    .   ....   ..........             ....   ..........

e|-------------------------------|-----------------------|
B|-------------------------------|-----------------------|
G|-------------------------------|-----------------------|
D|-------------------------------|----------------10/11--|
A|----5------4------------2-3-2--|--5------4-------------|
E|--0-3-0000-2-0000000000-0-1-0--|--3-0000-2-0000--8/ 9--|
    .   ....   ..........             ....   ....

            TIME- 1:34

Riff 6 x8
e|---------------------------|
B|---------------------------|
G|---------------------------|
D|--4/6----------------------|
A|---------------------------|
E|--2/4-44444444-1-222222-1--|

            TIME- 1:49

Riff 7A x2
             Guitar 1
e|--------|---------------------|-------------------|
B|--------|---------------------|-------------------|
G|--------|---------------------|-------------------|
D|--------|---------------------|--1233-4-2344-5-5--|
A|--5--4--|--444444-1-222222-1--|-------------------|
E|--------|---------------------|-------------------|
 |                              |
 |           Guitar 2           |
e|--------|---------------------|
B|--------|---------------------|
G|--------|---------------------|
D|--------|---------------------|
A|--------|---------------------|
E|--6--5--|--555555-2-333333-2--|

            TIME- 1:56

Riff 7B x1
e|--------|---------------------|-------------------|
B|--------|---------------------|-------------------|
G|--------|---------------------|-------------------|
D|--------|---------------------|-------------------|
A|--5--4--|--444444-1-222222-1--|--1--1--1--1--2-1--|
E|--------|---------------------|-------------------|

e|--------|---------------------|-----------|
B|--------|---------------------|-----------|
G|--------|---------------------|-----------|
D|--------|---------------------|-----------|
A|--5--4--|--444444-1-222222-1--|--1--1--1--|
E|--------|---------------------|-----------|

            TIME- 2:03

Riff 7C x3
e|--------|--------------|--------------------------|
B|--------|--------------|--------------------------|
G|--------|--------------|--------------------------|
D|--------|--------------|--------------------------|
A|--3--2--|--------------|--3--2--------------------|
E|--------|--4-555555-4--|-------4-4444-4-555555-4--|

Riff 7D x1
e|--------|--------------|--------|------------|
B|--------|--------------|--------|------------|
G|--------|--------------|--------|------------|
D|--------|--------------|--------|------------|
A|--3--2--|--------------|--3--2--|--666666-7--|
E|--------|--4-555555-4--|--------|--444444-5--|

            TIME- 2:17

Riff 2C x1
e|---------------|-----------------|
B|---------------|-----------------|
G|------------4--|-----------------|
D|---------------|--------------4--|
A|------------2--|-----------------|
E|--3222-1222----|--0-2444-1333-2--|

Riff 2B x3
e|---------------|-----------------|-----------|
B|---------------|-----------------|-----------|
G|------------4--|-----------------|----5/6-6--|
D|---------------|--------------4--|-----------|
A|------------2--|-----------------|----3/4-4--|
E|--3222-1222----|--0-2444-1333-2--|--0--------|

            TIME- 2:30

Riff 2D x1
e|---------------|-----------------|-----|
B|---------------|-----------------|-----|
G|------------4--|-----------------|--6--|
D|---------------|--------------4--|-----|
A|------------2--|-----------------|--4--|
E|--3222-1222----|--0-2444-1333-2--|-----|

Riff 2D x1
e|---------------|---------------------|
B|---------------|---------------------|
G|------------4--|--------------4------|
D|---------------|---------------------|
A|------------2--|--------------2------|
E|--3222-1222----|--0-2444-1333---3-1--|

            TIME- 2:36


albums
tabs

 

1