Search tabs:
Browse artists: 0-9 | A | B | C | D | E | F | G | H | I | J | K | L | M | N | O | P | Q | R | S | T | U | V | W | X | Y | Z
/ / / guitar tab

Band: Morbid Angel
Song: God Of Our Own Divinity
Album: Heretic

Tabbed by: Tom S. van Iersel (incredibledreamer_fff@hotmail.com)

Tuning: Eb Ab Db Gb Bb Eb
(Everything one half step down)

/ \ = slide
pm (palm mute) is written with dots.
" = trem.pick
X = deftone
ah = artificial harmonic

Intro Riff
----------------------------------------------------------||
----------------------------------------------------------||
---------------------------------------------------------o||
---------------------------------------------------------o||
2------------5-7--8~-7-5--2------------5-/7--5-4-5-4------||
0--/--3--5"--3-5--6~-5-3--0--/--3--5"--3-/5--3-2-3-2------||
             . .     . .                     . . . .

Riff 1 (when Steve starts singing)
*Note: Played same as above but with trem.pick on a few notes.
--------------------------------------------------------||
--------------------------------------------------------||
-------------------------------------------------------o||
-------------------------------------------------------o||
-------------5-7-8~--75---------------5-/7--5-4-5-4-----||
0"--3"--5"---3-5-6~--53--0"--3"--5"---3-/5--3-2-3-2-----||
             . .     ..                     . . . .

Played after a few repeats of Riff1 (you'll hear it clearly)
--------------------------------------------------------------||
--------------------------------------------------------------||
-------------------------------------------------------------o|| gtr.2
-------------------------------------------------------------o||
2--5--7-7-7-7---5--7--8-8-7-5---2--5--7-7-7-7---5-/7--5-4-5-4-||
0--3--5-5-5-5---3--5--6-6-5-3---0--3--5-5-5-5---3-/5--3-2-3-2-||
.  .  . . . .   .  .  . . . .   .  .  . . . .         . . . .

Riff 2 (Where the chorus comes "Absu...")
              ending 1)              ending 2)
-------|--------------|----------------------||
-------|--------------|----------------------||
(3)----|--------------|----------------------|| gtr.1
-------|--------------|----------------------||
-1-1-1-|-4"--5"--2"4"-|--4"--5"------4"------||
-2-2-2-|--------------|----------------------||
   . .                                              |
                                              |
              ending 1)              ending 2)|
-------|--------------|----------------------||
-------|--------------|----------------------||
(3)----|--------------|----------------------|| gtr.1
-------|--------------|----------------------||
-1-1-1-|--------------|----------------------||
-2-2-2-|-5"--6"--3"5"-|--5"--6"------5"------||
   . .

Riff 3
*Note: play the AH the last time. (before he goes to Riff 4)
-----------------------|--------------------------------||
-----------------------|--------------------------------||
-----------------------|--------------------------------|| gtr.1
-----------------------|---------------------------ah---||
-----------------------|----------4"--5"--4"--5"--4"----||
2"-----6"--5"--6"--8"--|--0"----------------------------||
                                                         |
Play the AH on 5 the second time                         |
-----------------------|--------------------------------||
-----------------------|--------------------------------||
-----------------------|--------------------------------|| gtr.1
-----------------------|-----------------------ah-------||
-----------------------|----------4"--5"--4"--5"--------||
2"-----6"--5"--6"--8"--|--0"----------------------------||

Riff 4
----------------------------------------------------||
----------------------------------------------------||
---------------------------------------------------o|| gtr.1
--------3ah---------8~----------3ah---------10~----o||
--------------5-4---------------------5-4-----------||
0"-/3"2"----X-3-2---6~---0"-/3"2"---X-3-2---8~------||
.   . .     . . .        .   . .    . . .

Keep playing this under gtr.1. So instead of letting
the 6&8's and the 8&10's ring, you play the 5"-6"-5"-
---------------------------------------||
---------------------------------------||
--------------------------------------o|| gtr.2
--------------------------------------o||
---------------------------------------||
0"-/3"2"-/5"-X-3"2"--/6"---5"-6"-5"----||
             .   .

Interlude
A|---------------3~-------o|| gtr.1
E|--2~--------------------o||

A|--3~--------------------o|| gtr.2
E|---------------6~-------o||

Bridge (The Oh-So Beautiful riff!!)
*Note: This one has a lot of tricky, double-guitar and trem.pick stuff
going on. You really need to lay a lot of feeling into it to make
it sound right.
-|--------------------------|
-|--------------------------|
-|--------------------------|
-|--------------------------|
-|/5"-4"-3"h4"3"-4"-X4X4-3~-|
2|--------------------------|
            .       . .

  |-----------------------------------------------------------||
  |-----------------------------------------------------------||
  |o---------------------------6~~~--------------------------o|| gtr.1
  |o----------2"~~~-4-444-77X--------------------------------o||
  |-0"--1"-X------------------------5"-4"-3"h4"3"-4"-X4X4-3~--||
  |-----------------------------------------------------------||
    .   .  .          ...  ..                .       . .

  |-----------------------------------------------------------||
  |-----------------------------------------------------------||
  |o---------------------------6~~~--------------------------o|| gtr.2
  |o----------2"~~~-4-444-55X--------------------------------o||
  |-----1"-X--------------------------------------------------||
  |-2"------------------------------6"-5"-4"h5"4"-5"-X5X5-4~--||
    .   .  .          ...  ..                .       . .

Then get back to the intro riff.
Under the intro riff Trey plays his wittle solo. :)

Then just listen to the
song and see where it's going. It has many repeats after
the bridge so you gotta listen carefully. It's not that hard to pick it up.

The ending riff is the interlude which I wrote up there.
Interlude
A|---------------3~-------o|| gtr.1
E|--2~--------------------o||

A|--3~--------------------o|| gtr.2
E|---------------6~-------o||

Under this "interlude" at the end Karl Sanders (see the booklet)
plays the last solo thingy over it.

Well, enjoy the show!! >>>>:)


albums
tabs

 

1