Search tabs:
Browse artists: 0-9 | A | B | C | D | E | F | G | H | I | J | K | L | M | N | O | P | Q | R | S | T | U | V | W | X | Y | Z
/ / / guitar tab

Morbid Angel
Song: The Stricken Arise
Album: Heretic
Tabbed by: Tom S. van Iersel - incredibledreamer_fff@hotmail.com

Tuning: Bb Eb Ab Db Gb Bb Eb (7 string)

Note: Almost everything is trem.pick
so just listen to the song.

Riff 1
--------------------------------|----------------------------||
--------------------------------|----------------------------||
--------------------------------|---------------------------o||
-------4------------------------|-------4-------------------o||
2---3-2--3-2---3-5-6-5-3h5p3----|2---3-2--3-2---3-5-6-5-3-5--||
--------------------------------|----------------------------||

Main riff
----------------------------|----------------||
----------------------------|----------------||
----------------------------|---------------o||
----3\----3\----3\----------|---------------o||
2-----2-----2---------------|---3-5-6-5-3-5--||
------------------3-2-3-2---|----------------||

Chorus riff ("Enlightened by their Hate...")
                         after 3rd time
------------------------|----------||
------------------------|----------||
-----------------------o|----------||
9--7--10--9------------o|----------||
9--7--10--9-------------|----------||
7--5--8---7--10\8\7\3---|-2--3-----||
      .   .

'Long' Bridge
play this 6x
-------------------------------------|------||
-------------------------------------|------||
------------------------------------o|------||
------------------------------------o|------||
-----4\-----4\-----4\------------4\--|--2ah-||
3------3------3------3---3203--------|32----||
                         ...
When vocals start:
let the '2's ring. The '^'s are for small bends
--------------------------------|
--------------------------------|
-------------------------------o|
-------------------------------o|
--------------------------------|
2--^--3X2--^--3X3--^--3/6\5-6---|
      ..      ..

Interlude.
         Play 4x
-------|--------------||
-------|--------------||
-------|-------------o||
----78-|-------------o||
--5666-|-6------------||
235666-|------3X2X0---||
              .....

Guitar and drum part
-------------------------------------------------|
-------------------------------------------------|
------------------------------------------------o|
------------------------------------------------o|
7-----------------------7------------4--5--4-5---|
--6--3-6-3--2--/3\2/3-----6--3-6-3-----3---------|
                                       .

		-----------------------------||
		-----------------------------||
		-----------------------------|| gtr.1
		-----------------------------||
		-----------------------------||
		-1--/--4--3--/--6------------||
                                              |
		-----------------------------||
		-----------------------------||
		-----------------------------|| gtr.2
		-----------------------------||
		-4--/--6--5--/--7------------||
		-----------------------------||

---------------|
---------------|
---------------|
---------------|
7--------------|
--6--3-6-3--2--|

		-----------------------------||
		-----------------------------||
		-----------------------------|| gtr.1
		-----------------------------||
		----------3--\\\\------------||
		-1--/--4--3--\\\\------------||
                                              |
		-----------------------------||
		-----------------------------||
		-----------------------------|| gtr.2
		----------5--\\\\------------||
		-4--/--6--5--\\\\------------||
		-----------------------------||

[Then go back to the beginning and listen how the song ends.]

Last riff:
                         after 3rd time
------------------------|--------|--------------------||
------------------------|--------|---------full bend--||
-----------------------o|--------|-----------)--------||
9--7--10--9------------o|--------|----------/---------||
9--7--10--9-------------|--------|-----3ah-/----------||
7--5--8---7--10\8\7\3---|-2--3---|-2--3---------------||
      .   .

End.


albums
tabs

 

1