Search tabs:
Browse artists: 0-9 | A | B | C | D | E | F | G | H | I | J | K | L | M | N | O | P | Q | R | S | T | U | V | W | X | Y | Z
/ / / guitar tab

Band:  (Morbid Angel)
Album: (Heretic)
Song:  (Within Thy Enemy.....)

Copyright (c)  (Earache) 2003
Version 1.0 - (21/3/05)

Transcribed By: (Infinity)
Email:          (myles_merritt@yahoo.com)


.  - palm mute           /  - slide up to
\  - slide down to       ~  - vibrato
h  - hammer on           b  - Bend
p  - pull off            Suffixes for bend
t  - tap                 f  - full bend    h - half bend
ph - pinched harmonic    q  - quarter bend t - tap bend
*  - see comment         ^  - Hold bend    r release bend
x  - Stuccatto           ~  - vibrato bend
,  - slight palm mute    () - ghost note, sustained note
"  - tremolo note        <> - Trill

Tunning Eb or D# [same thing]

Left Riff 1
|------------------------------------------------------------|
|------------------------------------------------------------|
|------------------------------------------------------------|
|-----------.-.-------------.-.------------.-.------------.-.|
|-----------2-5-------------2-5------------2-5------------2-5|
|3322332233-0-3-3322332233--0-3-3322332233-0-3-1100110011-0-3|

Right Riff 1
|---------------------------------------------------------------|
|---------------------------------------------------------------|
|---------------------------------------------------------------|
|---------------------------.-.------------------------------.-.|
|--------44..55..44..44..55-2-5-----44..55..44..33..33..55---2-5|
|33223322--32--32--32--32---0-3-3322--32--32--32--10--10-----0-3|


Both guitars before verse
|----------------------------------------------------------------|
|----------------------------------------------------------------|
|----------------------------------------------------------------|
|---------------------------.-.-.----------------------------.-.-|
|--------44..55..44..44..55-2-4-5-----44..55..44..33..33..55-4-5-|
|33223322--32--32--32--32---0-2-3-3322--32--32--32--10--10---2-3-|


Left riff verse
|----------------------------------------------------------------|
|----------------------------------------------------------------|
|----------------------------------------------------------------|
|----------------------------------------------------------------|
|44..44..55..44..4411001133110011-33..33..44..33..33110011555666-|
|--32--32--32--32-------------------10--10--10--10---------------|

Right riff verse
|----------------------------------------------------------------|
|----------------------------------------------------------------|
|----------------------------------------------------------------|
|----------------------------------------------------------------|
|44..44..55..44..44---------------33..33..44..33..33-------------|
|--32--32--32--32--22112244221122---10--10--10--10--221122555555-|


Chorus 1 Left
|-------------------------------------------------------------------------|
|-------------------------------------------------------------------------|
|-------------------------------------------------------------------------|
|-------------------------------------------------------------------------|
|--------33------------------33------------------33------------------33---|
|55552233--111100113355552233--111100113355552233--111100113355552233--11-|

Chorus 1 Right
|-------------------------------------------------------------------------|
|-------------------------------------------------------------------------|
|-------------------------------------------------------------------------|
|-------------------------------------------------------------------------|
|--------33------------------33------------------33----------777733555577-|
|55552233--111100113355552233--111100113355552233--1111001133-------------|

[Verse]

[Chorus]

After 2nd Chorus, play with palm mute
Right
|-----------------------|
|-----------------------|
|-----------------------|
|-----------------------|
|-2-3-4-5432-4-5-6-7654-|
|-----------------------|
LEFT
|-------------------------|
|-------------------------|
|-------------------------|
|-------------------------|
|-------5-4-2-------7-5-4-|
|-0-2-3-3-2-0-0-2-3-5-3-2-|


Varied Verse riff LEFT & RIGHT
|----------------------------------|
|----------------------------------|
|----------------------------------|
|----------------------------------|
|-44..55..33.33..-44..44..55..44..-|
|---32--32--1--10---32--32--32--32-|

[After Chorus Riff]

[Varied Verse Riff]

[Verse]

[Chorus]

I! AM VENGEANCE!!!

There you have it, I think it's perfect.
END


albums
tabs

 

1