Search tabs:
Browse artists: 0-9 | A | B | C | D | E | F | G | H | I | J | K | L | M | N | O | P | Q | R | S | T | U | V | W | X | Y | Z
/ Mortician / Hacked Up For Barbecue (1997) / Cremated guitar tab

MORTICIAN - CREMATED
                     From the Album - HACKED UP FOR BARBEQUE
                            Copyright: Relapse 1996
                           Version 1.0 - June 19, 2003

Tabbed By: Bobby Rafuse

For Questions, Comments, Newest Version, or Corrections contact
 Bobby at: metal_music69@hotmail.com

TAB NOTATION:
 _________________
|		  |
| pm - palm mute  |
| ~  - vibrato    |
| () - hold note  |
| \  - slide down |
|_________________|

Tuning - 3 1/2 steps down (A)

*NOTE* Some riffs may not be 100% right but bear with me. Anyone who knows Mortician
  knows that lots of those LOW notes are hard to hear but I tried my best to get it.


RIFF 1A (2x)
|-----------------|
|-----------------|
|-----------------|
|-----------------|
|-4-4-4-4-3-3-5-5-|
|-2-2-2-2-1-1-3-3-|
pm. . . . . . . .


RIFF 1B (2x)
|-----------------|----------------|
|-----------------|----------------|
|-----------------|----------------| GTR.
|-----------------|----------------|  1
|-4-4-4-4-3-3-5-5-|4-4-4-4-3-3-5-5-|
|-2-2-2-2-1-1-3-3-|2-2-2-2-1-1-3-3-|
pm. . . . . . . .  . . . . . . . . |
|                 |                |
|-----------------|----------------|
|-----------------|----------------|
|-----------------|----------------| GTR.
|-----------------|----------------|  2
|-4---------------|----------------|
|-2---------------|----------------|
pm.


RIFF 1C
|-----------------|----------------|
|-----------------|----------------|
|-----------------|----------------|
|-----------------|----------------|
|-4-4-4-4-3-3-5-5-|4---4---3-3-5---|
|-2-2-2-2-1-1-3-3-|2---2---1-1-3---|
pm. . . . . . . .          . .


Then play RIFF 1A (16x)


FILL 1
|-----|
|-----|
|-----|
|-----|
|-4---|
|-2---|


RIFF 2A (5x)
|-----------------|----------------|
|-----------------|----------------|
|-----------------|----------------|
|-----------------|----------------|
|-----------------|----------------|
|-2222222222222222|1111111133333333|


RIFF 2B
|-----------------|----------------|
|-----------------|----------------|
|-----------------|----------------|
|-----------------|----------------|
|-----------------|--------3-------|
|-2222222222222222|111111113-------|
pm		   ........


Then play RIFF 2A (4x)


RIFF 3 (4x)
|-----------------|
|-----------------|
|-----------------|
|-----------------|
|-----------------|
|-2222222211113333|


Then play RIFF 2A (3x)


RIFF 2C
|-----------------|----------------|
|-----------------|----------------|
|-----------------|----------------|
|-----------------|----------------|
|-----------------|----------------|
|-2222222222222222|111111115~~-----|
pm		   ........


Then play RIFF 2A (4x)

Then play RIFF 3 (4x)

Then play RIFF 1A (16x)


FILL 2
|---------|
|---------|
|---------|
|---------|
|-(4)--\--|
|-(2)--\--|

end.


Mortician albums
2003 Darkest Day of Horror
2001 Domain of Death
1999 Chainsaw Dismemberment
1998 Zombie Apocalypse
1997 Hacked Up For Barbecue
Hacked Up For Barbecue tabs
01Bloodcraving tabbass tab
02Embalmed Alive tabbass tab
03Cremated tabbass tab
04Three On A Meathook tabbass tab
06Deranged Insanity tabbass tab
07Cannibal Feast tabbass tab
08Blown To Pieces tabbass tab
09Fog Of Death tabbass tab
10Brutal Disfigurement tabbass tab
11Apocalyptic Devastation tabbass tab
12Inquisition tabbass tab
13Hacked Up For Barbecue tabbass tab
14Abolition tabbass tab
15Necrocannibal tabbass tab
16Ripped In Half tabbass tab
17Morbid Butchery tabbass tab
18Decapitated tabbass tab
19Drilling For Brains tabbass tab
20Eaten Alive By Maggots tabbass tab
21Witches' Coven tabbass tab
22Worms tabbass tab
23Annihilation tabbass tab
24Mortician tabbass tab

 

1