Search tabs:
Browse artists: 0-9 | A | B | C | D | E | F | G | H | I | J | K | L | M | N | O | P | Q | R | S | T | U | V | W | X | Y | Z
/ Mortician / Hacked Up For Barbecue (1997) / Embalmed Alive guitar tab

MORTICIAN - EMBALMED ALIVE
                    From the Album - HACKED UP FOR BARBEQUE
                          Copyright: Relapse 1996

Tabbed by: Bobby Rafuse (metal_music69@hotmail.com)

Tuning - 3 1/2 steps down (A)


RIFF 1 (2x)
|-----------------|
|-----------------|
|-----------------|
|-----------------|
|-2---4---3---5---|
|-0---2---1---3---|
pm.   .   .   .


RIFF 2 (4x)
|-----------------|
|-----------------|
|-----------------|
|-----------------|
|-2222444433335555|
|-0000222211113333|


RIFF 3 (4x)
|-----------------|
|-----------------|
|-----------------|
|-----------------|
|-----------------|
|-0000222211113333|


RIFF 4 (2x)
|-----------------|----------------|
|-----------------|----------------|
|-----------------|----------------|
|-----------------|----------------|
|-----------------|----------------|
|-5555555533333333|4444444422222222|


Repeat RIFF 2 4x (over short solo...not tabbed)

Repeat RIFF 3 4x

Repeat RIFF 4 2x


RIFF 5 (2x)
|-----------------|
|-----------------|
|-----------------|
|-----------------|
|-7---5---6---4---|
|-5---3---4---2---|
pm.   .   .   .


Repeat RIFF 2 4x

Repeat RIFF 3 4x

Repeat RIFF 4 2x

Repeat RIFF 5 4x


Mortician albums
2003 Darkest Day of Horror
2001 Domain of Death
1999 Chainsaw Dismemberment
1998 Zombie Apocalypse
1997 Hacked Up For Barbecue
Hacked Up For Barbecue tabs
01Bloodcraving tabbass tab
02Embalmed Alive tabbass tab
03Cremated tabbass tab
04Three On A Meathook tabbass tab
06Deranged Insanity tabbass tab
07Cannibal Feast tabbass tab
08Blown To Pieces tabbass tab
09Fog Of Death tabbass tab
10Brutal Disfigurement tabbass tab
11Apocalyptic Devastation tabbass tab
12Inquisition tabbass tab
13Hacked Up For Barbecue tabbass tab
14Abolition tabbass tab
15Necrocannibal tabbass tab
16Ripped In Half tabbass tab
17Morbid Butchery tabbass tab
18Decapitated tabbass tab
19Drilling For Brains tabbass tab
20Eaten Alive By Maggots tabbass tab
21Witches' Coven tabbass tab
22Worms tabbass tab
23Annihilation tabbass tab
24Mortician tabbass tab

 

1