Search tabs:
Browse artists: 0-9 | A | B | C | D | E | F | G | H | I | J | K | L | M | N | O | P | Q | R | S | T | U | V | W | X | Y | Z
/ Mortician / Hacked Up For Barbecue (1997) / Mortician guitar tab

Band:   MORTICIAN
Album:  HACKED UP FOR BARBEQUE
Song:   MORTICIAN

Copyright (c)   RELAPSE  1996
Version 1.0 -  4-12-04

Transcribed By:  BestialWarrior
Email:           Bestialson2003@yahoo.com


.  - palm mute           /  - slide up to
\  - slide down to       ~  - vibrato
h  - hammer on           b  - Bend
p  - pull off            Suffixes for bend
t  - tap                 f  - full bend    h - half bend
ph - pinched harmonic    q  - quarter bend t - tap bend
*  - see comment         ^  - Hold bend    r release bend
x  - Stuccatto           ~  - vibrato bend
,  - slight palm mute    () - ghost note, sustained note
"  - tremolo note        <> - Trill
S  - Sustained Chord/note

Tunning: Regular A Tuning.

Bass Intro riff.

Intro Riff. Moderately Fast.
|----------------||
|----------------||
|----------------||
|----------------||
|--------------3-||
|1-1-1-1-1-1-1-1-||
 . . . . . . .

Riff#2.Slow/Moderately.(4X)
|----------------||
|----------------||
|----------------||
|----------------||
|5--6--5--3------||
|3--4--3--1------||
 S        S

Transition A.
|-----------||
|-----------||
|-----------||
|-----------||
|5~--------5||
|3---------3||

Riff#3A. Fast Tremolo Picking.(4X)
|------------------||
|------------------||
|------------------||
|"-----------------||
|5------------6-5-8||
|3------------4-3-6||

Riff#3B. Fast Tremolo Picking.(8X)
|-------------||
|-------------||
|-------------||
|"------------||
|5--------6-5-||
|3--------4-3-||

Riff#4. Slightly Fast.(2X)      (Fill 1) (Fill 2).
|------------------------|------|------|--------||
|------------------------|------|------|--------||
|------------------------|------|------|--------||
|------------------------|------|------|--------||
|5-5-5-5-5-5-5-5-5-5-5-5-|6--6--|3--3--|3-3-3-3-||
|3-3-3-3-3-3-3-3-3-3-3-3-|4--4--|1--1--|1-1-1-1-||
                                        . . . .

Repeat Riff#3B(8X).
Repeat Riff#4.(2X).

Riff#5. Slightly Fast/Palm Mute
* Play up to the asterisk on the (8th)Time.
|------------------------------||
|------------------------------||
|------------------------------||
|----------------------*-------||
|5-5-5-5-5-5-5-5-5-5-5-5-6-6-3-||
|3-3-3-3-3-3-3-3-3-3-3-3-4-4-1-||
 . . . . . . . . . . . . . . .

Transition B.
|---------||
|---------||
|---------||
|----6-6-3||
|13/-4-4-1||
     . . .

Repeat Riff#5.(4X)
Repeat Riff#3B.(8X)

End Chord.
|---||
|---||
|---||
|---||
|5--||
|3--||

..."it's never over"....

END


Mortician albums
2003 Darkest Day of Horror
2001 Domain of Death
1999 Chainsaw Dismemberment
1998 Zombie Apocalypse
1997 Hacked Up For Barbecue
Hacked Up For Barbecue tabs
01Bloodcraving tabbass tab
02Embalmed Alive tabbass tab
03Cremated tabbass tab
04Three On A Meathook tabbass tab
06Deranged Insanity tabbass tab
07Cannibal Feast tabbass tab
08Blown To Pieces tabbass tab
09Fog Of Death tabbass tab
10Brutal Disfigurement tabbass tab
11Apocalyptic Devastation tabbass tab
12Inquisition tabbass tab
13Hacked Up For Barbecue tabbass tab
14Abolition tabbass tab
15Necrocannibal tabbass tab
16Ripped In Half tabbass tab
17Morbid Butchery tabbass tab
18Decapitated tabbass tab
19Drilling For Brains tabbass tab
20Eaten Alive By Maggots tabbass tab
21Witches' Coven tabbass tab
22Worms tabbass tab
23Annihilation tabbass tab
24Mortician tabbass tab

 

1