Search tabs:
Browse artists: 0-9 | A | B | C | D | E | F | G | H | I | J | K | L | M | N | O | P | Q | R | S | T | U | V | W | X | Y | Z
/ Motley Crue / New Tattoo (2000) / Punched in the Teeth by Love guitar tab

punched in the teeth by love
motley crue

d tuning- DAFCGD

PM- palm mute
\- slide down
x- palm mute

**the solos and micks lead playing will come soon

intro
d--------------------------------------------------------------
a--------------------------------------------------------------
f--------------------------------------------------------------
c--------------------------------------------------------------
g--------0----2-----0----2--0-1-2------0----2----0----0--0-1-2-
d--\\--2----2----2----2--------------2----2----2----2----------

d----------------------------------------------------------
a----------------------------------------------------------
f----------------------------------------------------------
c----------------------------------------------------------
g----0----2-----0----2--0-1-2------0----2----0----0--0-1-2-
d--2----2----2----2--------------2----2----2----2----------

verse
d---------------------------------------------------
a---------------------------------------------------
f---------------------------------------------------
c--4-4-4-x-4---4-4-4-x-4----------------------------
g--4-4-4-x-4---4-4-4-x-4----0----2----0----2--0-1-2-
d--2-2-2-x-2---2-2-2-x-2--2----2----2----2----------

d---------------------------------------------------
a---------------------------------------------------
f---------------------------------------------------
c--4-4-4-x-4---4-4-4-x-4----------------------------
g--4-4-4-x-4---4-4-4-x-4----0----2----0----2--0-1-2-
d--2-2-2-x-2---2-2-2-x-2--2----2----2----2----------

d------------------------------------------------
a------------------------------------------------
f------------------------------------------------
c--9-9-9-x-9---9-9-9-x-9-------------------------
g--9-9-9-x-9---9-9-9-x-9----5----7----5----5-6-7-
d--7-7-7-x-7---7-7-7-x-7--7----7----7----7-------

d---------------------------------------------------
a---------------------------------------------------
f---------------------------------------------------
c--4-4-4-x-4---4-4-4-x-4----------------------------
g--4-4-4-x-4---4-4-4-x-4----0----2----0----2--0-1-2-
d--2-2-2-x-2---2-2-2-x-2--2----2----2----2----------

pre chorus
   PM-------------|
d------------------------------
a------------------------------
f------------------------------
c--9999999999999999----9-8-7\\-
g--9999999999999999----9-8-7\\-
d--7777777777777777----7-6-5\\-

chorus
d----------------------------------------------------------
a----------------------------------------------------------
f----------------------------------------------------------
c----------------------------------------------------------
g----0----2-----0----2--0-1-2------0----2----0----0--0-1-2-
d--2----2----2----2--------------2----2----2----2----------

verse
d---------------------------------------------------
a---------------------------------------------------
f---------------------------------------------------
c--4-4-4-x-4---4-4-4-x-4----------------------------
g--4-4-4-x-4---4-4-4-x-4----0----2----0----2--0-1-2-
d--2-2-2-x-2---2-2-2-x-2--2----2----2----2----------

d---------------------------------------------------
a---------------------------------------------------
f---------------------------------------------------
c--4-4-4-x-4---4-4-4-x-4----------------------------
g--4-4-4-x-4---4-4-4-x-4----0----2----0----2--0-1-2-
d--2-2-2-x-2---2-2-2-x-2--2----2----2----2----------

d------------------------------------------------
a------------------------------------------------
f------------------------------------------------
c--9-9-9-x-9---9-9-9-x-9-------------------------
g--9-9-9-x-9---9-9-9-x-9----5----7----5----5-6-7-
d--7-7-7-x-7---7-7-7-x-7--7----7----7----7-------

d---------------------------------------------------
a---------------------------------------------------
f---------------------------------------------------
c--4-4-4-x-4---4-4-4-x-4----------------------------
g--4-4-4-x-4---4-4-4-x-4----0----2----0----2--0-1-2-
d--2-2-2-x-2---2-2-2-x-2--2----2----2----2----------

pre chorus
   PM-------------|
d------------------------------
a------------------------------
f------------------------------
c--9999999999999999----9-8-7\\-
g--9999999999999999----9-8-7\\-
d--7777777777777777----7-6-5\\-

chorus
d----------------------------------------------------------
a----------------------------------------------------------
f----------------------------------------------------------
c----------------------------------------------------------
g----0----2-----0----2--0-1-2------0----2----0----0--0-1-2-
d--2----2----2----2--------------2----2----2----2----------


solo-


verse/bridge
                  PM-------------------------------------------|
d---------------------------------------------------------------
a---------------------------------------------------------------
f---------------------------------------------------------------
c--4-4-4-4-x-x-x--4-4-4-4-4-4-4-4-4-4-4-4-4-4-4-4-4-4-x-x-x-4-4-
g--4-4-4-4-x-x-x--4-4-4-4-4-4-4-4-4-4-4-4-4-4-4-4-4-4-x-x-x-4-4-
d--2-2-2-2-x-x-x--2-2-2-2-2-2-2-2-2-2-2-2-2-2-2-2-2-2-x-x-x-2-2-

    PM-----------------------|
d--------------------------------------------------------------------
a--------------------------------------------------------------------
f--------------------------------------------------------------------
c--9-9-9-9-9-9-9-9-9-9-9-9-9-9--11-11-11-11-11--11--11---------------
g--9-9-9-9-9-9-9-9-9-9-9-9-9-9--11-11-11-11-11--11--11-----0-1-2-1-0-
d--7-7-7-7-7-7-7-7-7-7-7-7-7-7--9--9--9--9---9---9--9----2-----------

chorus
d----------------------------------------------------------
a----------------------------------------------------------
f----------------------------------------------------------
c----------------------------------------------------------
g----0----2-----0----2--0-1-2------0----2----0----0--0-1-2-
d--2----2----2----2--------------2----2----2----2----------


solo out-


questions comments email me:
valkeyrie3@hotmail.com


Motley Crue albums
2000 New Tattoo
1997 Generation Swine
1994 Mötley Crüe
1991 Decade of Decadence
1989 Dr. Feelgood
1987 Girls, Girls, Girls
1985 Theatre of Pain
1983 Shout at the Devil
1981 Too Fast for Love
New Tattoo tabs
01Hell on High Heels tabbass tab
02Treat Me Like the Dog I Am tabbass tab
03New Tattoo tabbass tab
04Dragstrip Superstar tabbass tab
051st Band on the Moon tabbass tab
06She Needs Rock & Roll tabbass tab
07Punched in the Teeth by Love tabbass tab
09Fake tabbass tab
10Porno Star tabbass tab
11White Punks on Dope tabbass tab

 

1