Search tabs:
Browse artists: 0-9 | A | B | C | D | E | F | G | H | I | J | K | L | M | N | O | P | Q | R | S | T | U | V | W | X | Y | Z
/ Motley Crue / Too Fast for Love (1981) / Come on and Dance guitar tab

come on and dance
motley crue

PM- palm mute
/- slide down

intro- PM all open D's                                                      
-------------------------------------------------
-------------------------------------------------
-------------------------------------------------
--------7-----6--------7-----6-----7-----4--4--4-
--------5-----4--------5-----4-----5-----2--2--2-
--0--0-----0-----0--0-----0-----0-----0----------
                                                                        
-------------------------------------------------
-------------------------------------------------
-------------------------------------------------
-------7----6--------7-------6-----7-------------
-------5----4--------5-------4-----5-------------
--0--0----0-----0--0-----0-----0------3--2--0--0-

---------------------------------------------
---------------------------------------------
---------------------------------------------
--------7-----6--------7----6----7-----4-4-4-
--------5-----4--------5----4----5-----2-2-2-
--0--0-----0-----0--0-----0----0----0--------
                             
------------------------------------------
------------------------------------------
------------------------------------------
--------7-----6--------7-----6-----7----/-
--------5-----4--------5-----4-----5----/-
--0--0-----0-----0--0-----0-----0-------/-

verse                                                            
--------------------------------------------------------
--------------------------------------------------------
--------------------------------------------------------
--2--2--------7----2--2--------7----2--2--------7-------
--2--2--------5----2--2--------5----2--2--------5-----7-
--0--0-----0-------0--0-----0-------0--0--0--0--------5-
                 
---------------------------------------------------------
---------------------------------------------------------
---------------------------------------------------------
---2--2--------7----2--2--------7----2--2--------7-------
---2--2--------5----2--2--------5----2--2--------5-----7-
---0--0-----0-------0--0-----0-------0--0--0--0--------5-
                       
--------------------------------
--------------------------------
--------------------------------
---7------4-------7-------------
---5------2-------5-------------
------0-------0---------3--2--3-

chorus- PM all open D's
-------------------------------------------------
-------------------------------------------------
-------------------------------------------------
-------7------6---------7-----6------7-----4-4-4-
--2----5------4---------5-----4------5-----2-2-2-
--0--------0------0--0-----0------0------0-------    
                      
-------------------------------------------------
-------------------------------------------------
-------------------------------------------------
--------7-----6--------7-----6-----7-------------
--------5-----4--------5-----4-----5-------------
--0--0-----0-----0--0-----0-----0-----3--2--0--0-
                        
----------------------------------------------
----------------------------------------------
----------------------------------------------
-----7--------6-----7-----6-----7-----4--4--4-
-----5--------4-----5-----4-----5-----2--2--2-
--0-----0--0-----0-----0-----0----------------

--------------------------------------------
--------------------------------------------
--------------------------------------------
-------7----6--------7-----6-----7----------
-------5----4--------5-----4-----5----------
--0--0----0----0--0-----0-----0-----3--2--3-

verse
---------------------------------------------------------------------
---------------------------------------------------------------------
---------------------------------------------------------------------
--2--2---------7-----2--2-------7----2--2--------7-------2--2------7-
--2--2---------5-----2--2-------5----2--2--------5--7----2--2------5-
--0--0-----0---------0--0----0-------0--0--0--0-----5----0--0----0---
                                                                        
--------------------------------------------------------
--------------------------------------------------------
--------------------------------------------------------
--2--2--------7----2--2--------7---------7------4-----7-
--2--2--------5----2--2--------5---7-----5------2-----5-
--0--0-----0-------0--0--0--0------5---------0------0---
                
---------------------------------------------------------
---------------------------------------------------------
---------------------------------------------------------
--2--2--------7-----------7--------4-----------7---------
--2--2--------5-----7-----5--------2-----------5---------
--0--0--0--0--------5----------0-----------0-------3-2-3-

chorus- PM all open D's                                                    
--------------------------------------------
--------------------------------------------
--------------------------------------------
-----7-----6--------7-----6-----7-----4-4-4-
-2---5-----4--------5-----4-----5-----2-2-2-
-0------0-----0--0-----0-----0-----0--------
                                                                
------------------------------------------------------------------------
------------------------------------------------------------------------
------------------------------------------------------------------------
-------7-----6--------7-----6-----7-----------------7-----6--------7----
-------5-----4--------5-----4-----5-----------------5-----4--------5----
--0--0----0-----0--0-----0-----0-----3--2-----0--0-----0-----0--0-----0-
                                                                        
-----------------------------------------------------------------------------------
-----------------------------------------------------------------------------------
-----------------------------------------------------------------------------------
-------7----6-------7---6------7---4-4-4---------7-----6--------7-----6----7-------
-------5----4-------5---4------5---2-2-2---------5-----4--------5-----4----5-------
--0--0----0----0--0---0-----0---------------0--0----0-----0--0-----0-----0---3-2-3-

solo- just the beginning                                                      
--------------------------------------------------
--------------------------------------------------
-7-----7-----7-----7-------7-----7-----7-----7----
----7-----7-----7-----7-------7-----7-----7-----7-
--------------------------------------------------
--------------------------------------------------

verse                                                
-----------------------------------------------------
-----------------------------------------------------
-----------------------------------------------------
--2--2--------7----2--2--------7----2--2--------7----
--2--2--------5----2--2--------5----2--2--------5--7-
--0--0-----0-------0--0-----0-------0--0--0--0-----5-
                                                       
-----------------------------------------------------
-----------------------------------------------------
-----------------------------------------------------
--2--2--------7----2--2--------7----2--2--------7----
--2--2--------5----2--2--------5----2--2--------5--7-
--0--0-----0-------0--0-----0-------0--0--0--0-----5-
             
chorus- PM all open D's           
------------------------------------------------
------------------------------------------------
------------------------------------------------
--7------4-------7----------------------7-----6-
--5------2-------5----------------2-----5-----4-
-----0-------0---------3--2--3----0--------0----
                          
----------------------------------------------------------------------------
----------------------------------------------------------------------------
----------------------------------------------------------------------------
------7---6-------7-----6-----7-----4--4--4------7-------4---------7--------
--2---5---4-------5-----4-----5-----2--2--2------5-------2---------5--------
--0-----0----0--0-----0-----0----0-------------------0---------0------3-2-3-

chorus- PM all open D's                                                  
-------------------------------------------------
-------------------------------------------------
-------------------------------------------------
--------7-----6--------7-----6-----7-----4--4--4-
--2-----5-----4--------5-----4-----5-----2--2--2-
--0--------0-----0--0-----0-----0-----0----------
                                                  
-------------------------------------------
-------------------------------------------
-------------------------------------------
-------7-----6--------7-----6-----7--------
-------5-----4--------5-----4-----5--------
--0--0-----0-----0--0-----0-----0-----3--2-
                             
----------------------------------------------------------------------------------
----------------------------------------------------------------------------------
----------------------------------------------------------------------------------
--------7---6-------7----6-----4--4--4---------7-----6-------7-----6-----7--------
--------5---4-------5----4-----2--2--2---------5-----4-------5-----4-----5--------
--0--0----0----0--0----0----0------------0--0-----0-----0--0-----0-----0----3-2-3-
 
---------------------------------------------
---------------------------------------------
---------------------------------------------
----7-------6------7-----6-----7-----4--4--4-
----5-------4------5-----4-----5-----2--2--2-
--0----0--0-----0-----0-----0----------------
                            
--------------------------------------------
--------------------------------------------
--------------------------------------------
-------7---6--------7-----6-----7-----------
-------5---4--------5-----4-----5-----------
--0-0----0----0--0-----0-----0------3--2--3-
                            
----------------------------------------------------------------------------------
----------------------------------------------------------------------------------
----------------------------------------------------------------------------------
----7------6----7-----6-----4--4--4----------7-----6--------7-----6-----7---------
----5------4----5-----4-----2--2--2----------5-----4--------5-----4-----5---------
--0---0--0----0---0-0----0-------------0--0-----0-----0--0-----0-----0------3-2-3-
                                                                        
-------------------------------------------
-------------------------------------------
-------------------------------------------
--7-----6--------7-----6-----7-----4--4--4-
--5-----4--------5-----4-----5-----2--2--2-
-----0-----0--0-----0-----0-----0----------
                                                                        
-------------------------------------------
-------------------------------------------
-------------------------------------------
-------7---6-------7-----6-----7-----------
-------5---4-------5-----4-----5-----------
--0--0---0----0--0----0-----0------3--2--3-
                                    
-----------------------------------
-----------------------------------
-----------------------------------
--7---6------7----6----7---4--4--4-
--5---4------5----4----5---2--2--2-
----0---0--0----0----0-------------

----------------------------------------------
----------------------------------------------
----------------------------------------------
------7------6--------7-----6-----7-----------
------5------4--------5-----4-----5-----------
-0--0-----0-----0--0-----0-----0------3--2--3-


Motley Crue albums
2000 New Tattoo
1997 Generation Swine
1994 Mötley Crüe
1991 Decade of Decadence
1989 Dr. Feelgood
1987 Girls, Girls, Girls
1985 Theatre of Pain
1983 Shout at the Devil
1981 Too Fast for Love
Too Fast for Love tabs
01Live Wire tabbass tab
02Come on and Dance tabbass tab
03Public Enemy #1 tabbass tab
04Merry-Go-Round tabbass tab
05Take Me to the Top tabbass tab
06Piece of Your Action tabbass tab
07Starry Eyes tabbass tab
08Too Fast for Love tabbass tab
09On With the Show tabbass tab
10Toast of the Town tabbass tab
11Tonight (We Need a Lover) tabbass tab
12Too Fast for Love tabbass tab
13Stick to Your Guns tabbass tab

 

1