Search tabs:
Browse artists: 0-9 | A | B | C | D | E | F | G | H | I | J | K | L | M | N | O | P | Q | R | S | T | U | V | W | X | Y | Z
/ Motley Crue / Too Fast for Love (1981) / Live Wire guitar tab

Live Wire                            Motley Crue Rules!

                              By Motley Crue
Tabbed By: Chris Reeves

 Intro
E---------|--------------------|--------------------|-------------------
B---------|--------------------|--------------------|-------------------
G------5--|-----------------5--|-----------------5--|-------------------
D------5--|-----------------5--|-----------------5--|-------------------
A---------|--0--0--0--0--0-----|--0--0--0--0--0-----|--0--0--0--0--0----
E---------|--------------------|--------------------|-------------------



E------|--------------------------|--------------------|----------------
B------|--------------------------|--------------------|----------------
G------|--5--5--------7--7-----5--|-----------------5--|----------------
D------|--5--5--------7--7-----5--|-----------------5--|----------------
A---0--|--------0--0--------0-----|--0--0--0--0--0-----|--0--0--0--0----
E------|--------------------------|--------------------|----------------


                                  harmonics
E---------|--------------------|--------------------------|-------------
B---------|--------------------|-----------------5--------|-------------
G------5--|--------------------|--5-----------5--------5--|-------------
D------5--|--------------------|-----5-----5-----------5--|-------------
A---0-----|--0--0--0--0--0--0--|--------5-----------------|--0--0--0----
E---------|--------------------|--------------------------|-------------



E------------|--------------------|--------------------------|----------
B------------|--------------------|--------------------------|----------
G---------5--|--------------------|--5--5--------7--7-----5--|----------
D---------5--|--------------------|--5--5--------7--7-----5--|----------
A---0--0-----|--0--0--0--0--0--0--|--------0--0--------0-----|--0--0----
E------------|--------------------|--------------------------|----------



E---------------|--------------------|--------------------|-------------
B---------------|--------------------|--------------------|-------------
G------------5--|-----------------5--|--------------------|-------------
D------------5--|-----------------5--|--------------------|-------------
A---0--0--0-----|--0--0--0--0--0-----|--0--0--0--0--0--0--|--0--0--0----
E---------------|--------------------|--------------------|-------------


                                      Verse
E----------------------------------|--------------------|---------------
B----------------------------------|--------------------|---------------
G---7^-----5--------------------5--|-----------------5--|---------------
D-------------7--5--------------5--|-----------------5--|---------------
A-------------------7--6--5--------|--0--0--0--0--0-----|--0--0--0------
E----------------------------8-----|--------------------|---------------



E------------|--------------------|-----------------------|-------------
B------------|--------------------|-----------------------|-------------
G---------5--|--------------------|--7--------7--------5--|-------------
D---------5--|--------------------|--7--------7--------5--|-------------
A---0--0-----|--0--0--0--0--0--0--|-----7--5-----7--5-----|--0--0--0----
E------------|--------------------|-----------------------|-------------



E------------|--------------------|--------------------|----------------
B------------|--------------------|--------------------|----------------
G---------5--|-----------------5--|--------------------|--7--------7----
D---------5--|-----------------5--|--------------------|--7--------7----
A---0--0-----|--0--0--0--0--0-----|--0--0--0--0--0--0--|-----7--5-------
E------------|--------------------|--------------------|----------------



E------------|--------------------|--------------------|----------------
B------------|--------------------|--------------------|----------------
G---------5--|-----------------5--|-----------------5--|----------------
D---------5--|-----------------5--|-----------------5--|----------------
A---7--5-----|--0--0--0--0--0-----|--0--0--0--0--0-----|--0--0--0--0----
E------------|--------------------|--------------------|----------------


                                     Pre-Chorus
E---------|-----------------------|---------------|---------------------
B---------|-----------------------|---------------|---------------------
G---------|--7--------7-----------|---------------|---------------------
D---------|--7--------7--7--9--9--|--10-----------|---------------------
A---0--0--|-----7--5-----5--7--7--|--8------------|--8--8---------------
E---------|-----------------------|---------------|--------10--8--------



E----------|--------------|--------------------------|------------------
B----------|--------------|--------------------------|------------------
G----------|--7-----------|--------------------------|------------------
D----------|--5-----------|--5--5--------------------|------------------
A----------|--------------|--------7--5-----7--5--5--|--7---------------
E---10--7--|--------------|--------------------3--3--|--5---------------


          Chorus
E------|-----------------------|-----------------------|----------------
B------|-----------------------|-----------------------|----------------
G------|--------5-----7--------|--5--5-----7-----------|--------5-------
D------|--------7-----9--------|--7--7-----9-----------|--------7-------
A------|--0--0-----0-----0--0--|--------0-----0--0--0--|--0--0-----0----
E------|-----------------------|-----------------------|----------------



E------------|-----------------------|-----------------------|----------
B------------|-----------------------|-----------------------|----------
G---7--------|--5--5-----7-----------|--------5-----7--------|--5--5----
D---9--------|--7--7-----9-----------|--------7-----9--------|--7--7----
A------0--0--|--------0-----0--0--0--|--0--0-----0-----0--0--|----------
E------------|-----------------------|-----------------------|----------



E------------------|-----------------------|-----------------------|----
B------------------|-----------------------|-----------------------|----
G------7-----------|--------5-----7--------|--5--5-----7-----------|----
D------9-----------|--------7-----9--------|--7--7-----9-----------|----
A---0-----0--0--0--|--0--0-----0-----0--0--|--------0-----0--0--0--|----
E------------------|-----------------------|-----------------------|----



E------------------------|-----------------------|----------------------
B------------------------|-----------------------|----------------------
G---------5-----7--------|--5--5-----7-----------|--------5-----7-------
D---------7-----9--------|--7--7-----9-----------|--------7-----9-------
A---0--0-----0-----0--0--|--------0-----0--0--0--|--0--0-----0-----0----
E------------------------|-----------------------|----------------------



E------|-----------------------|-----------------------|----------------
B------|-----------------------|-----------------------|----------------
G------|--5--5-----7-----------|--------5-----7--------|--5--5-----7----
D------|--7--7-----9-----------|--------7-----9--------|--7--7-----9----
A---0--|--------0-----0--0--0--|--0--0-----0-----0--0--|--------0-------
E------|-----------------------|-----------------------|----------------



E------------|-----------------------|--------------------|-------------
B------------|-----------------------|--------------------|-------------
G------------|--------5-----7--------|--5--5-----7--\--5--|-------------
D------------|--------7-----9--------|--7--7-----9--\--5--|-------------
A---0--0--0--|--0--0-----0-----0--0--|--------0-----------|--0--0--0----
E------------|-----------------------|--------------------|-------------



E------------|--------------------|--------------------|----------------
B------------|--------------------|--------------------|----------------
G---------5--|-----------------5--|--------------------|-----------7----
D---------5--|-----------------5--|--------------------|----------------
A---0--0-----|--0--0--0--0--0-----|--0--0--0--0--0--0--|--0--0--0-------
E------------|--------------------|--------------------|----------------



E---------------------------------|--------------------|----------------
B---------------------------------|--------------------|----------------
G---^-----5--------------------5--|-----------------5--|----------------
D------------7--5--------------5--|-----------------5--|----------------
A------------------7--6--5--------|--0--0--0--0--0-----|--0--0--0--0----
E---------------------------8-----|--------------------|----------------



E---------|--------------------|-----------------------|----------------
B---------|--------------------|--5--5-----7--7--------|----------------
G------5--|--------------------|--5--5-----7--7-----5--|----------------
D------5--|--------------------|--5--5-----7--7-----5--|----------------
A---0-----|--0--0--0--0--0--0--|-----------------------|--0--0--0--0----
E---------|--------------------|-----------------------|----------------



E---------|--------------------|--------------------|-------------------
B---------|--------------------|--------------------|-------------------
G------5--|-----------------5--|--------------------|-----------7^------
D------5--|-----------------5--|--------------------|-------------------
A---0-----|--0--0--0--0--0-----|--0--0--0--0--0--0--|--0--0--0----------
E---------|--------------------|--------------------|-------------------


                                  Verse
E------------------------------|--------------------|-------------------
B------------------------------|--------------------|-------------------
G------5--------------------5--|-----------------5--|-------------------
D---------7--5--------------5--|-----------------5--|-------------------
A---------------7--6--5--------|--0--0--0--0--0-----|--0--0--0--0--0----
E------------------------8-----|--------------------|-------------------



E------|--------------------|-----------------------|-------------------
B------|--------------------|-----------------------|-------------------
G---5--|--------------------|--7--------7--------5--|-------------------
D---5--|--------------------|--7--------7--------5--|-------------------
A------|--0--0--0--0--0--0--|-----7--5-----7--5-----|--0--0--0--0--0----
E------|--------------------|-----------------------|-------------------



E------|--------------------|--------------------|----------------------
B------|--------------------|--------------------|----------------------
G---5--|-----------------5--|--------------------|--7--------7----------
D---5--|-----------------5--|--------------------|--7--------7----------
A------|--0--0--0--0--0-----|--0--0--0--0--0--0--|-----7--5-----7--5----
E------|--------------------|--------------------|----------------------



E------|--------------------|--------------------|----------------------
B------|--------------------|--------------------|----------------------
G---5--|-----------------5--|-----------------5--|----------------------
D---5--|-----------------5--|-----------------5--|----------------------
A------|--0--0--0--0--0-----|--0--0--0--0--0-----|--0--0--0--0--0--0----
E------|--------------------|--------------------|----------------------


                               Pre-Chorus
E---|--------------------------|---------------|------------------------
B---|--------------------------|---------------|------------------------
G---|--7--------7-----------5--|---------------|------------------------
D---|--7--------7-----------5--|--10-----------|------------------------
A---|-----7--5-----7--5--------|--8------------|--8--8------------------
E---|--------------------------|---------------|--------10--8-----10----



E------|--------------|--------------------------|-----------|----------
B------|--------------|--------------------------|-----------|----------
G------|--7-----------|--------------------------|-----------|----------
D------|--5-----------|--5--5--------------------|-----------|----------
A------|--------------|--------7--5-----7--5--5--|--7--------|----------
E---7--|--------------|--------------------3--3--|--5--------|----------


    Chorus
E------------------------|-----------------------|----------------------
B------------------------|-----------------------|----------------------
G---------5-----7--------|--5--5-----7-----------|--------5-----7-------
D---------7-----9--------|--7--7-----9-----------|--------7-----9-------
A---0--0-----0-----0--0--|--------0-----0--0--0--|--0--0-----0-----0----
E------------------------|-----------------------|----------------------



E------|-----------------------|-----------------------|----------------
B------|-----------------------|-----------------------|----------------
G------|--5--5-----7-----------|--------5-----7--------|--5--5-----7----
D------|--7--7-----9-----------|--------7-----9--------|--7--7-----9----
A---0--|--------0-----0--0--0--|--0--0-----0-----0--0--|--------0-------
E------|-----------------------|-----------------------|----------------



E------------|-----------------------|-----------------------|----------
B------------|-----------------------|-----------------------|----------
G------------|--------5-----7--------|--5--5-----7-----------|----------
D------------|--------7-----9--------|--7--7-----9-----------|----------
A---0--0--0--|--0--0-----0-----0--0--|--------0-----0--0--0--|--0--0----
E------------|-----------------------|-----------------------|----------



E------------------|-----------------------|-----------------------|----
B------------------|-----------------------|-----------------------|----
G---5-----7--------|--5--5-----7-----------|--------5-----7--------|----
D---7-----9--------|--7--7-----9-----------|--------7-----9--------|----
A------0-----0--0--|--------0-----0--0--0--|--0--0-----0-----0--0--|----
E------------------|-----------------------|-----------------------|----



E------------------------|-----------------------|----------------------
B------------------------|-----------------------|----------------------
G---5--5-----7-----------|--------5-----7--------|--5--5-----7----------
D---7--7-----9-----------|--------7-----9--------|--7--7-----9----------
A---------0-----0--0--0--|--0--0-----0-----0--0--|--------0-----0--0----
E------------------------|-----------------------|----------------------



E------|-----------------------|-----------------------|----------------
B------|-----------------------|-----------------------|----------------
G------|--------5-----7--------|--5--5-----7-----------|--5-------------
D------|--------7-----9--------|--7--7-----9-----------|--7-------------
A---0--|--0--0-----0-----0--0--|--------0--------------|----------------
E------|-----------------------|-----------------------|----------------



E---|-----------------|-----------------|-----------------|-------------
B---|-----------------|-----------------|-----------------|-------------
G---|--7--------------|--5--------------|--7--------------|--5----------
D---|--5--------------|--3--------------|--5--------------|--7----------
A---|-----------------|-----------------|-----------------|-------------
E---|-----------------|-----------------|-----------------|-------------



E------|-----------------|-----------------|------------------|---------
B------|-----------------|-----------------|------------------|---------
G------|--7--------------|--5--------------|------------------|--5------
D------|--5--------------|--3--------------|--12--------------|--7------
A------|-----------------|-----------------|--10--------------|---------
E------|-----------------|-----------------|------------------|---------


                                                         pick slide
E---------------|------------------|------------------|-----------------
B---------------|------------------|------------------|-----------------
G---------------|------------------|------------------|-----------------
D---------------|--12--------------|--10--------------|--12--\----------
A---------------|--10--------------|--8---------------|--10--\----------
E---------------|------------------|------------------|-----------------


          Chorus
E------|-----------------------|-----------------------|----------------
B------|-----------------------|-----------------------|----------------
G------|--------5-----7--------|--5--5-----7-----------|--------5-------
D------|--------7-----9--------|--7--7-----9-----------|--------7-------
A------|--0--0-----0-----0--0--|--------0-----0--0--0--|--0--0-----0----
E------|-----------------------|-----------------------|----------------



E------------|-----------------------|-----------------------|----------
B------------|-----------------------|-----------------------|----------
G---7--------|--5--5-----7-----------|--------5-----7--------|--5--5----
D---9--------|--7--7-----9-----------|--------7-----9--------|--7--7----
A------0--0--|--------0-----0--0--0--|--0--0-----0-----0--0--|----------
E------------|-----------------------|-----------------------|----------



E------------------|-----------------------|-----------------------|----
B------------------|-----------------------|-----------------------|----
G------7-----------|--------5-----7--------|--5--5-----7-----------|----
D------9-----------|--------7-----9--------|--7--7-----9-----------|----
A---0-----0--0--0--|--0--0-----0-----0--0--|--------0-----0--0--0--|----
E------------------|-----------------------|-----------------------|----



E------------------------|-----------------------|----------------------
B------------------------|-----------------------|----------------------
G---------5-----7--------|--5--5-----7-----------|--------5-----7-------
D---------7-----9--------|--7--7-----9-----------|--------7-----9-------
A---0--0-----0-----0--0--|--------0-----0--0--0--|--0--0-----0-----0----
E------------------------|-----------------------|----------------------



E------|-----------------------|-----------------------|----------------
B------|-----------------------|-----------------------|----------------
G------|--5--5-----7-----------|--------5-----7--------|--5--5-----7----
D------|--7--7-----9-----------|--------7-----9--------|--7--7-----9----
A---0--|--------0-----0--0--0--|--0--0-----0-----0--0--|--------0-------
E------|-----------------------|-----------------------|----------------



E------------|-----------------------|-----------------------|----------
B------------|-----------------------|-----------------------|----------
G------------|--------5-----7--------|--5--5-----7-----------|----------
D------------|--------7-----9--------|--7--7-----9-----------|----------
A---0--0--0--|--0--0-----0-----0--0--|--------0--------0--2--|----------
E------------|-----------------------|--------------0--------|----------


    Outro
E------------------------------|-----------------------|----------------
B------------------------------|-----------------------|----------------
G------------------------------|-----------------------|----------------
D------------------------------|-----------0--2--------|----------------
A---3-----2-----0-----2--3-----|--2-----3--------3--2--|--3-----2-------
E------------------------------|-----------------------|----------------



E------------------|-----------------------|----------------------------
B------------------|-----------------------|----------------------------
G------------------|-----------------------|----------------------------
D------------------|-----------0--2--------|----------------------------
A---0-----2--3-----|--2-----3--------3--2--|--3-----2-----0-----2--3----
E------------------|-----------------------|----------------------------



E------|-----------------------|-----------------------------|----------
B------|-----------------------|-----------------------------|----------
G------|-----------------------|-----------------------------|----------
D------|-----------0--2--------|-----------------------------|----------
A------|--2-----3--------3--2--|--3-----2-----0-----2--3-----|--2-------
E------|-----------------------|-----------------------------|----------



E------------------|-----------------------------|----------------------
B------------------|-----------------------------|----------------------
G------------------|-----------------------------|----------------------
D------0--2--------|-----------------------------|-----------0--2-------
A---3--------3--2--|--3-----2-----0-----2--3-----|--2-----3--------3----
E------------------|-----------------------------|----------------------



E------|-----------------------------|-----------------------|----------
B------|-----------------------------|-----------------------|----------
G------|-----------------------------|-----------------------|----------
D------|-----------------------------|-----------0--2--------|----------
A---2--|--3-----2-----0-----2--3-----|--2-----3--------3--2--|--3-------
E------|-----------------------------|-----------------------|----------



E------------------------|-----------------------|----------------------
B------------------------|-----------------------|----------------------
G------------------------|-----------------------|----------------------
D------------------------|-----------0--2--------|----------------------
A---2-----0-----2--3-----|--2-----3--------3--2--|--3-----2-----0-------
E------------------------|-----------------------|----------------------



E------------|-----------------------|--------------------|-------------
B------------|-----------------------|--------------------|-------------
G------------|-----------------------|-----------------5--|-------------
D------------|-----------0--2--------|-----------------5--|-------------
A---2--3-----|--2-----3--------3--2--|--------------------|--0--0--0----
E------------|-----------------------|--------------------|-------------



E------------|--------------------|--------------------|----------------
B------------|--------------------|--------------------|--5--5-----7----
G---------5--|-----------------5--|--------------------|--5--5-----7----
D---------5--|-----------------5--|--------------------|--5--5-----7----
A---0--0-----|--0--0--0--0--0-----|--0--0--0--0--0--0--|----------------
E------------|--------------------|--------------------|----------------



E------------|-----------------------------|--------------------|-------
B------------|-----------------------------|--------------------|-------
G------------|--------------------------5--|-----------------5--|-------
D------------|--------------------------5--|-----------------5--|-------
A------------|-----------------------------|--0--0--0--0--0-----|--0----
E------------|-----------------------------|--------------------|-------



E------------------|--------------------|-----------------------|-------
B------------------|--------------------|--5--5-----7-----------|-------
G---------------5--|--------------------|--5--5-----7-----------|-------
D---------------5--|--------------------|--5--5-----7-----------|-------
A---0--0--0--0-----|--0--0--0--0--0--0--|-----------------------|-------
E------------------|--------------------|-----------------------|-------



E---------------------|--------------------|--------------------|-------
B---------------------|--------------------|--------------------|-------
G------------------5--|-----------------5--|-----------------5--|-------
D------------------5--|-----------------5--|-----------------5--|-------
A---------------------|--0--0--0--0--0-----|--0--0--0--0--0-----|--0----
E---------------------|--------------------|--------------------|-------



E------------------|--------------------------|--------------------|----
B------------------|--5--5-----7--------------|--------------------|----
G------------------|--5--5-----7-----------5--|-----------------5--|----
D------------------|--5--5-----7-----------5--|-----------------5--|----
A---0--0--0--0--0--|--------------------------|--0--0--0--0--0-----|----
E------------------|--------------------------|--------------------|----



E---------------------|--------------------|----------------------------
B---------------------|--------------------|----------------------------
G------------------5--|--------------------|----------------------------
D------------------5--|--------------------|-----------------------2----
A---0--0--0--0--0-----|--0--0--0--0--0--0--|--------------0--2-----0----
E---------------------|--------------------|--3--2--3--0--------3-------



E---------|-------------------------------------------------------------
B---------|-------------------------------------------------------------
G---------|-------------------------------------------------------------
D---2-----|-------------------------------------------------------------
A---0-----|-------------------------------------------------------------
E---------|-------------------------------------------------------------




========================================================================
==                       TABLATURE EXPLANATION                        ==
========================================================================

----------                ----------                ----t---
----5h8--- Hammeron       ----(8)--- Ghost          ----6--- Tap
----------                ---------- Note           --------
----5p8--- Pulloff        ----------                --------

----------                ----------                -----p--
----5/8--- Slide Up       -----x---- Dead           -----7-- Pop
----------                ---------- Note           --s-----
----5\8--- Slide Down     ----------                --5----- Slap

----------                ||------|| Repeat         --------
----5~~~-- Vibrato        ||*----*||                ---5^--- Bend
----------                ||*----*||                --------
----------                ||------||                --------

----------                ----------                --------
-4:------- Time           ----------                --------
-4:------- Signature      ----------                --------
----------                ----------                --------

Rhythm:
  w = whole note            W = dotted whole
  h = half note             H = dotted half
  q = quarter note          Q = dotted quarter
  e = eighth note           E = dotted eighth
  s = sixteenth note        S = dotted sixteenth
  t = 32nd note             T = dotted 32nd
  x = 64th note             X = dotted 64th
  ^ = triplet

========================================================================
==            Created with a demo version of BUCKET O' TAB            ==
==              tablature creation software for Windows               ==
==                  For more info email gse@his.com                   ==
========================================================================


Motley Crue albums
2000 New Tattoo
1997 Generation Swine
1994 Mötley Crüe
1991 Decade of Decadence
1989 Dr. Feelgood
1987 Girls, Girls, Girls
1985 Theatre of Pain
1983 Shout at the Devil
1981 Too Fast for Love
Too Fast for Love tabs
01Live Wire tabbass tab
02Come on and Dance tabbass tab
03Public Enemy #1 tabbass tab
04Merry-Go-Round tabbass tab
05Take Me to the Top tabbass tab
06Piece of Your Action tabbass tab
07Starry Eyes tabbass tab
08Too Fast for Love tabbass tab
09On With the Show tabbass tab
10Toast of the Town tabbass tab
11Tonight (We Need a Lover) tabbass tab
12Too Fast for Love tabbass tab
13Stick to Your Guns tabbass tab

 

1