Search tabs:
Browse artists: 0-9 | A | B | C | D | E | F | G | H | I | J | K | L | M | N | O | P | Q | R | S | T | U | V | W | X | Y | Z
/ / / guitar tab

Motorhead - Bomber
Submitted By: lemmysmole
EMail: lemmysmole69@hotmail.com


Tune down to Eb (half a step).

tr =trill (hammer on & off very quickly)

Intro
e|-----------------------|-----------------------|
B|--------tr----------tr-|--------tr---------tr--|
G|-----9-7-8-------9-7-8-|-----7-5-6------7-5-6--|
D|-----9-----------9-----|-----7----------7------|
A|-9-9--------9-9--------|-7-7--------7-7--------|
E|-7-7--------7-7--------|-5-5--------5-5--------|
For the verse play each 'bit' 4 times instead of 2.

Bridge (after intro)
e|-----------------------|
B|-----------------------|
G|-----------------------|
D|-99999999999999999-----|
A|-77777777777777777etc.-|
E|-----------------------|

Chorus
e|----------------------------------|
B|----------------------------------|
G|----------------------------------|
D|-99999999999999997777777777777777-|
A|-77777777777777775555555555555555-|
E|----------------------------------|

e|----------------------------------|
B|----------------------------------|
G|----------------------------------|
D|-99999999999999995555555577777777-|
A|-77777777777777773333333355555555-|
E|----------------------------------|


albums
tabs

 

1