Search tabs:
Browse artists: 0-9 | A | B | C | D | E | F | G | H | I | J | K | L | M | N | O | P | Q | R | S | T | U | V | W | X | Y | Z
/ My Dying Bride / The Angel and the Dark River (1996) / The Cry of Mankind guitar tab

Song  : Cry of Mankind
Band  : My Dying Bride
Album : The Angel and the Dark River

6/8 Timing
Andante (76 - 108 bpm)
Guitar 1 : Standard 1.5 Steps down : C# F# B e g# c# : distortion & reverb
Guitar 2 : Standard 1.5 Steps down : C# F# B e g# c# : distortion

Some of the fingerings can be made much easier, but this is the way MDB plays it
so might as well play how they play.

Guitar 1 - This riff plays through the ENTIRE song (must be one bored guitarist)
||--t7-p0-h3------------||
||-----------t7-p0-h3---||
||.--------------------.||
||.--------------------.||
||----------------------||
||----------------------||
||   1  2  3  4  5  6   ||


Riff I
||----------------|---------------|---------------|----------------||
||----------------|---------------|---------------|----------------||
||.---------------|---------------|---------------|---------------.||
||.---------------|---------------|---------------|---------------.||
||---2------------|-(2)----2--/7--|--3------------|--2-------------||
||---0------------|-(0)-----------|---------------|----------------||
||   1 2 3 4 5 6  |  1 2 3 4 5 6  |  1 2 3 4 5 6  |  1 2 3 4 5 6   ||

Riff II
||-----------------------|------|----------------|----------||
||-----------------------|------|----------------|----------||
||-----------------------|------|----------------|----------||
||----9-5-10v--10h12p10--|--9v--|----9-5-10v--9--|----------||
||--7--------------------|------|--7-------------|--9v-10v--||
||-----------------------|------|----------------|----------||
||  1 2 3  4 5  6  e  +  |  W   |  1 2 3  4 5 6  |  Q.  Q.  ||

Riff III
||---------------|---------------|---------------|---------------|
||---------------|---------------|---------------|---------------|
||---------------|---------------|---------------|---------------|
||-------/-9-----|-\\-5-----------|-------/-9-----|/-12-----------|
||--2----/7------|-\\3------------|--2----/7------|/10------------|
||--0------------|---------------|--0------------|---------------|
||  1 2 3 4 5 6  |  1 2 3 4 5 6  |  1 2 3 4 5 6  |  1 2 3 4 5 6  |

|---------------|---------------|---------------|---------------||
|---------------|---------------|---------------|---------------||
|---------------|---------------|---------------|---------------||
|-------/-9-----|-\\-5-----------|--------4------|--2------------||
|--2----/7------|-\\3---------3--|--2------------|---------------||
|--0------------|---------------|---------------|---------------||
|  1 2 3 4 5 6  |  1 2 3 4 5 6  |  1 2 3 4 5 6  |  1 2 3 4 5 6  ||

Riff IV
[#] play on 1st repeat, not on 2nd
{#} play on 1st repeat, not on 2nd
*   play on 2nd repeat, not on 1st
||---------------|---------------|---------------|---------------|
||---------------|---------------|---------------|---------------|
||---------------|---------------|---------------|---------------|
||-*9------------|---------------|--------5------|--4---------2--|
||-[2]-----------|-(2)----2--/7--|--3------------|---------------|
||-[0]-----------|-(0)-----------|---------------|---------------|
||  1 2 3 4 5 6  |  1 2 3 4 5 6  |  1 2 3 4 5 6  |  1 2 3 4 5 6  |

|---------------|---------------|---------------|---------------||
|---------------|---------------|---------------|---------------||
|---------------|---------------|---------------|---------------||
|--2------------|-(2)-----------|--------5------|-/7-------{/9}-||
|---------------|--------2--/7--|--3------------|---------------||
|---------------|---------------|---------------|---------------||
|  1 2 3 4 5 6  |  1 2 3 4 5 6  |  1 2 3 4 5 6  |  1 2 3 4 5 6  ||

Solo
||---------------|---------------|---------------|-----------------|
||---------------|---------------|---------------|-----------------|
||---------------|---------------|---------------|-----------------|
||--2----/9------|-\\5-----4---2--|--2---/10------|-\\5-----7-5-4h5--|
||---------------|---------------|---------------|-----------------|
||---------------|---------------|---------------|-----------------|
||  1 2 3 4 5 6  |  1 2 3 4 5 6  |  1 2 3 4 5 6  |  1 2 3 4 5 6 +  |

|---------------|---------------|---------------|---------------|
|---------------|---------------|---------------|---------------|
|---------------|---------------|---------------|---------------|
|--2----/9------|-\\5-----4---2--|--2---/10------|/12------------|
|---------------|---------------|---------------|------------7--|
|---------------|---------------|---------------|---------------|
|  1 2 3 4 5 6  |  1 2 3 4 5 6  |  1 2 3 4 5 6  |  1 2 3 4 5 6  |

|---------------|--------------------|----------------|--------------------|
|---------------|--------------------|----------------|--------------------|
|---------------|-----9-11-12-11-12--|-12------14-12--|-11-12-14-12-11-12--|
|---------------|--------------------|----------------|--------------------|
|7--------------|-(7)-7--9-10--9-10--|-10------12-10--|--9-10-12-10--9-10--|
|---------------|--------------------|----------------|--------------------|
|  1 2 3 4 5 6  |  1  2  3  4  5  6  |  1 2 3 4 5  6  |  1  2  3  4  5  6  |

|---------------|--------------------|----------------|----------------||
|---------------|--------------------|----------------|----------------||
|9--------------|-(9)-9--11-12-11-9--|--9-------11-9--|--7-9-11-9-7-9--||
|---------------|--------------------|----------------|----------------||
|7--------------|-(7)-7--9--10-9--7--|--7-------9--7--|--5-7--9-7-5-7--||
|---------------|--------------------|----------------|----------------||
|  1 2 3 4 5 6  |  1  2  3  4  5  6  |  1 2 3 4 5  6  |  1 2  3 4 5 6  ||

Order---------\\
| 4 bar rest  |
| Riff   I x2 |
| Riff  II x2 |
| Riff III x2 |
| Riff  IV x2 |
| Solo     x1 |
| Riff  II x2 |
| Riff III x2 |
| Riff   I x2 |
| Riff  IV x2 |
| Fade        |
\\-------------/


My Dying Bride albums
2004 Songs of Darkness, Words of Light
2001 The Dreadful Hours
1999 The Light at the End of the World
1998 34.788%...Complete
1997 Like Gods of the Sun
1996 The Angel and the Dark River
1994 Turn Loose the Swans
1992 As the Flower Withers
The Angel and the Dark River tabs
01The Cry of Mankind tabbass tab
03Black Voyage tabbass tab
04A Sea to Suffer In tabbass tab
05Two Winters Only tabbass tab
06Your Shameful Heaven tabbass tab

 

1