Search tabs:
Browse artists: 0-9 | A | B | C | D | E | F | G | H | I | J | K | L | M | N | O | P | Q | R | S | T | U | V | W | X | Y | Z
/ Neil Young / Harvest Moon (1992) / Unknown Legend guitar tab

Unknown Legend : Harvest Moon : Neil Young


Intro Riff:  C B D  X3             "<>" = Chord
             C B E  X1
             E G D  X1


In Tab it looks like:

           Strum G chord             Strum...
-----------3-------------------------3------------------3----|
-----------0-------------------------0------------------0----|
-----------0--------------------------0------------------0---|
--------0--0---------------------0---0---------------0--0----|
-2--3------2---------------2--3------2---------2--3-----2----|
-----------3-------------------------3------------------3----|


	   Strum C chord                Strum G chord
-----------0----------------------------3----|
-----------1----------------------------0----|
-----------0----------------------------0----|
-----------2--------------------0-------0----|
-3--2------3----------------------------2----|
-------0---0--------------0--3----------3----|


              G
She used to work in a diner, never saw a woman look finer
                                                  C
I used to order just to see her float across the floor.
                   G
She grew up in a small town, never put her roots down.
                             C
Daddy kept movin so she did too.

    Chorus:
                          G                   C       G
Somewhere on a desert highway, she rides a harley davidson
                                       C
Her long blonde hair  flyin' in the wind.
                               G
She's been runnin half of her life.
                  C       G
The chrome and steel she rides,
                                    C                       G
collidin' with the very air she breathes, the air she breathes.

     Repeat Intro Riff

You know it's ain't easy, you got to hold on.
She was an unknown legend in her time.
Now whe's dressin' two kids, lookin' for that magic kiss.
She gets that far away look in her eyes.

    Repeat Chorus

notes: by zito@cpchq.cpc.gmeds.com (James L. Zito)
sent to the rust list by steveportigal


Neil Young albums
2003 Greendale
2002 Are You Passionate?
2000 Silver & Gold
1996 Broken Arrow
1995 Mirror Ball
1994 Sleeps With Angels
1992 Harvest Moon
1990 Ragged Glory
1989 Freedom
1988 This Note's for You
1987 Life
1985 Old Ways
1983 Trans
1981 Re-ac-tor
1980 Hawks & Doves
1979 Rust Never Sleeps
1975 Zuma
1975 Tonight's the Night
1972 Harvest
1970 After The Gold Rush
1969 Neil Young
1969 Everybody Knows This Is Nowhere
Harvest Moon tabs
01Unknown Legend tabbass tab
02From Hank to Hendrix tabbass tab
03You and Me tabbass tab
04Harvest Moon tabbass tab
05War of Man tabbass tab
06One of These Days tabbass tab
07Such a Woman tabbass tab
08Old King tabbass tab
09Dreamin' Man tabbass tab
10Natural Beauty tabbass tab

 

1