Search tabs:
Browse artists: 0-9 | A | B | C | D | E | F | G | H | I | J | K | L | M | N | O | P | Q | R | S | T | U | V | W | X | Y | Z
/ / / guitar tab

LAST

repeat this several times:  (rhythm fig 1).
E----------------------------------------------------------- 
B----------------------------------------------------------- 
G-------------------8--8------------------------------------ 
D---7--7--5^7^^7^7--6--6--7--7--5-7---0-0-0-1-1-0-0---------
A---5--5--3^5^^3^5--------5--5--3^5------------------------- 
E-----------------------------------------------------------
goes into this:
(no mute, slide between chords)
rhythm fig 2.
E--------------------------
B--------------------------
G--------------------------
D---5---6---7--------------
A---3---4---5---5---6---7--
E---------------3---4---5--


"lead" break (twice):
E-------------------------------------------------------- 
B-------------------------------------------------------- 
G-------------------------------------------------------- 
D--------------------------------3--3-------------------- 
A--3--5-5-3--5p3-----3--5--5------------3--5-5-3--5p3----
E-----------------5-----------5------------------------5-

E----------------
B----------------
G----------------
D----------------
A-3--------------
E---5--4--3--1---

back to figure 1.

Bass interlude(this isn't meant to last...), breaks into:  (fig 3)
E------------------------------ 
B------------------------------ 
G------------------------------ 
D--------5---6---7---8---9^10-- 
A--------3---4---5---6---7^8--- 
E--0--0----0---0---0---0-------
all E notes muted

Then back to fig. 2,
and outro on fig. 1.

(4:36) on the last two bars of the outro, a second guitar plays fig. 3 
underneath the louder guitar playing fig 1.

Alternate fill for riff 1:
rhythm fig 4
E----------------------------------------------------------- 
B----------------------------------------------------------- 
G-------------------8--8------------------------------------ 
D---7--7--5^7^^7^7--6--6--7--7--5-7----0-0--1--0--2^^3------ 
A---5--5--3^5^^3^5--------5--5--3^5---------------slide----- 
E-----------------------------------------------------------


albums
tabs

 

1