Search tabs:
Browse artists: 0-9 | A | B | C | D | E | F | G | H | I | J | K | L | M | N | O | P | Q | R | S | T | U | V | W | X | Y | Z
/ / / guitar tab

WISH

main riff, repeat several times with breaks for lyrics:
E-------------------------------------------------------- 
B-------------------------------------------------------- 
G-------------------------------------------------------- 
D---7--7--7--8--7--5--7--7--7--8--7---------------------- 
A---5--5--5--6--5--3--5--5--5--6--5---------------------- 
E--------------------------------------------------------

chorus:
E-------------------------------------------------------- 
B-------------------------------------------------------- 
G-------------------------------------------------------- 
D---10-----5------7--7--7--8--7--5--7--7--7--8--7-------- 
A---8------3------5--5--5--6--5--3--5--5--5--6--5-------- 
E--------------------------------------------------------

E-------------------------------------------------------- 
B-------------------------------------------------------- 
G-------------------------------------------------------- 
D---10-----5-------------7--7--7--8--7--5--7--7--7--8--7- 
A---8------3----5---6----5--5--5--6--5--3--5--5--5--6--5- 
E---------------3---4------------------------------------
verse, chorus, then:

(1:54) Bass or quiet guitar?
slowly during interlude:
G-----------------------------
D-----------------------------
A-----5----3------------------
E--------------4----1---------

outro:
E-------------------------------------------------------- 
B-------------------------------------------------------- 
G-------------------------------------------------------- 
D---7--7--7--8--7----7--7--7--8--7----7--7--7--8--7----7-
A---5--5--5--6--5----5--5--5--6--5----5--5--5--6--5----5-
E--------------------------------------------------------

E--------------
B--------------
G--------------
D-5------------
A-3----6----3--
E------4----1--

A Second Guitar plays this twice during the outro:
E-------------------------------------------- 
B--------------------------------------------
G-12-10-12-13-12---------12-10-12-13-12------ 
D---------------10-12------------------10-12-
A--------------------------------------------
E--------------------------------------------

E---------------------------
B---------------------------
G-12-10-12-13-12---------10-
D---------------10-12-----/-
A-------------------------/-
E---------------------------


albums
tabs

 

1