Search tabs:
Browse artists: 0-9 | A | B | C | D | E | F | G | H | I | J | K | L | M | N | O | P | Q | R | S | T | U | V | W | X | Y | Z
/ / / guitar tab

ruiner 

notes: a fairly easy solo for beginning-intermediate guitar players. a 
       prebend and release note is accomplished by (full) bending the 
       note before striking it, and then releasing the bend gradually.
       i am terribly sorry if this transcription looks bad, but it's 
       the best i could do with ascii. 
'       = full or half bend up only
'`      = full or half bend up and then back down
/ and \ = slides, / up and \ down
^       = hammer-on on pull-off 
~       = let note ring
/////// = tremelo picking while sliding up the neck

 3:00                              3:04   
 |----------------------------------------------------------------------|
 |------------------------*i--------------------------------------------|
 |-*----------------------^---------------------------------------12-14-|
 |-14`-----10^12-12-10-12'`10---------------12-12-12-12-12-12-/14-------|
 |----10~---------------------12---10^11^12-----------------------------|
 |----------------------------------------------------------------------|
    * = PreBend and release        *i = bend up then down, then pull-off
 3:09            3:12                          3:16
 |---------------------------------------------15-15-15-15~--17'`'`'`'--|
 |-15'~--15'~----15-13-15-15'15'15'15-13-15'----------------------------|
 |-----------12~--------------------------------------------------------|
 |----------------------------------------------------------------------|
 |----------------------------------------------------------------------|
 |----------------------------------------------------------------------|

 3:12                      3:25                  3:30
 |----------------------------------------------------------------------|
 |----------------------------------------------------------------------|
 |-----------------------------------------7-7'7`--5-5------------------|
 |-------------------------------------5-7-7'7'---7-7-7-5--------/7~----|
 |-/3-5--5'5'5'3^5^3^0-3---3^5^3^0--/7-----------0-------7-6-5----------|
 |------------------------------------------------------------8-5-------|

 3:36                         3:41
 |------------------------------------------------------5-5///////////--|
 |------------------------------------------------------5-5///////////--|
 |-7\5-5~-7\5--7-7'7'`^5-7\---------------------------2-----------------|
 |-7\5-5~-7\5--7-7'7'`^5------------------------------2-----------------|
 |----------------------------/5-4-4\3-3\2-2---2----0-------------------|
 |---------------------------------


albums
tabs

 

1