Search tabs:
Browse artists: 0-9 | A | B | C | D | E | F | G | H | I | J | K | L | M | N | O | P | Q | R | S | T | U | V | W | X | Y | Z
/ / / guitar tab

Nine Inch Nails: THE FRAGILE 
Tabbed by Alex Robertson (mog@thefreeinternet.co.uk)

Notation

b   	bend
gb	gradual bend
pb	pre-bend
br	bend and return
bp	bend then pull off 
>   	slide
~~	vibrato
h   	hammer on
p	pull off
PM	palm mute
x	muted or scraped note
H  	harmonic
(6)	I think I hear this note...but maybe not...
///	tremolo pick

INTO THE VOID

Dropped-D tuning, then all strings down a tone.

Cello Intro

d-------------------------------
A-------------------------------
F-------------------------------
C-------------------------------	
G---3--5--8--10--8--10--1--3----
C-------------------------------

Guitar melody

d-----------------------------------------------------------
A-----------------------------------------------------------
F--------------10-------------12--10--12--14--12--10--------
C---12--10--12-----12----12--------------------------12-----
G-----------------------------------------------------------
C-----------------------------------------------------------

...then...

C---10--11--12--0--3----0h10--11--12p0---
G----------------------------------------
C----------------------------------------

Synth Riff

C---10--11--12--0--3----0h10--11--12-------
G---10--11--12--0--3----0h10--11--12-------
C---10--11--12--0--3----0h10--11--12-------

[2:06]

C-->>>10--10>9--9>8--8>7----
G---------------------------
C---------------------------

Break [3:22]

d-----------------------------------------------------------
A-----------------------------------------------------------
F--------------10-------------12--10--12--14--12--10--------
C---12--10--12-----12----12--------------------------12-----
G-----------------------------------------------------------
C-----------------------------------------------------------

Solo [3:42]

d-----------------------------------------
A-----------------------------------------
F-----------------------------------------
C--12--10----0h6>7>8>9--------------------
G-----------------------------------------
C-----------------------0h10--11--12------



DISCLAIMER:

This transcription is not a copy of official music, nor is it intended to be definitive. 
It is my interpretation of the music of Nine Inch Nails, which is the property of the 
copyright owner.

It is freely offered to all musicians who are interested for private use, but is not for 
commercial use or exploitation.

If you wish to pass this transcription on, please credit the author: ALEX ROBERTSON.
Corrections/Comments: mog@thefreeinternet.co.uk

For more tab like this, visit: http://www.thefreeinternet.co.uk/mog2/guitar_tab.htm

Thanks.


albums
tabs

 

1