Search tabs:
Browse artists: 0-9 | A | B | C | D | E | F | G | H | I | J | K | L | M | N | O | P | Q | R | S | T | U | V | W | X | Y | Z
/ / / guitar tab

Nine Inch Nails
Getting Smaller
With Teeth
1/2 step down?

Intro - FeedBack and Pick scraping. But I picked up that it may be using these
E|------------------		-------------
B|------------------		-------------
G|--------7-7b-7----		--8-8b-8-----
D|------------------ Then ->	-------------
A|------------------		-------------
e|------------------		-------------

Verse 1 - Low Distortion
E|--------------------------------------------
B|--------------------------------------------
G|-----------------12-12-9-xxx----------------
D|--2-222---7-5----12-12-9-xxx----------------
A|--2-222---7-5----10-10-7-xxx----------------
e|--0-000---5-3-------------------------------

Chorus - LOUDER Distortion
E|----------------------------
B|----------------------------
G|----------------------------
D|---5---------------------5--
A|------7-7h6-6h5-5-4-5-7-----
e|----------------------------

Verse 2 - Play Verse 1

Chorus

Bridge - try to play each chord broken.
E|----------------------------
B|----------------------------
G|---55--55-------------------
D|---55--55--5--77--77--7-----
A|---33--33--5--77--77--7-----
e|-----------3--55--55--5-----

Then play verse 1 then keep playing the chorus until song ends

If I stuffed something up, send me your suggestion at purgat0ry_@hotmail.com


albums
tabs

 

1