Search tabs:
Browse artists: 0-9 | A | B | C | D | E | F | G | H | I | J | K | L | M | N | O | P | Q | R | S | T | U | V | W | X | Y | Z
/ / / guitar tab

Only



E||------|------|------|------|------|------|------|------|------|------|------|
B||------|------|------|------|------|------|------|------|------|------|------|
G||------|------|------|------|------|------|------|------|------|------|------|
D||------|------|------|------|------|------|------|------|------|------|------|
A||------|------|------|------|------|------|------|------|------|------|------|
E||------|------|------|------|------|------|------|------|------|------|------|


                                                                 3x
------|------|------|------|------|------|------||-------|-------||------|
------|------|------|------|------|------|------||-------|-------||------|
------|------|------|------|------|------|------||*------|------*||------|
------|------|------|------|------|------|------||*------|------*||------|
------|------|------|------|------|------|------||-------|-------||------|
------|------|------|------|------|------|------||-------|-------||------|



------|------|------|------|------|------|------|------|------|------|------|
------|------|------|------|------|------|------|------|------|------|------|
------|------|------|------|------|------|------|------|------|------|------|
------|------|------|------|------|------|------|------|------|------|------|
------|------|------|------|------|------|------|------|------|------|------|
------|------|------|------|------|------|------|------|------|------|------|



------|------|------|------|------|------|------|------|------|------|------|
------|------|------|------|------|------|------|------|------|------|------|
------|------|------|------|------|------|------|------|------|------|------|
------|------|------|------|------|------|------|------|------|------|------|
------|------|------|------|------|------|------|------|------|------|------|
------|------|------|------|------|------|------|------|------|------|------|



------|--------------------------|--------------------------|
------|--------------------------|--------------------------|
------|--4--4--4--4--4--4--4--4--|--9--9--9--9--9--9--9--9--|
------|--4--4--4--4--4--4--4--4--|--7--7--7--7--7--7--7--7--|
------|--2--2--2--2--2--2--2--2--|--7--7--7--7--7--7--7--7--|
------|--------------------------|--------------------------|



--------------------------|--------------------------|
--------------------------|--------------------------|
--2--2--2--2--2--2--2--2--|--7--7--7--7--7--7--7--7--|
--2--2--2--2--2--2--2--2--|--7--7--7--7--7--7--7--7--|
--0--0--0--0--0--0--0--0--|--5--5--5--5--5--5--5--5--|
--------------------------|--------------------------|



--------------------------|--------------------------|
--------------------------|--------------------------|
--4--4--4--4--4--4--4--4--|--9--9--9--9--9--9--9--9--|
--4--4--4--4--4--4--4--4--|--7--7--7--7--7--7--7--7--|
--2--2--2--2--2--2--2--2--|--7--7--7--7--7--7--7--7--|
--------------------------|--------------------------|



--------------------------|--------------------------|------------------------|
--------------------------|--------------------------|------------------------|
--2--2--2--2--2--2--2--2--|--7--7--7--7--7--7--7--7--|--4--5----2--4----4--2--|
--2--2--2--2--2--2--2--2--|--7--7--7--7--7--7--7--7--|------------------------|
--0--0--0--0--0--0--0--0--|--5--5--5--5--5--5--5--5--|------------------------|
--------------------------|--------------------------|------------------------|



----------------------|------------------------|----------------------|
----------------------|------------------------|----------------------|
--4--5----2--4--------|--4--5----2--4----4--2--|--4--5----2--4--------|
----------------------|------------------------|----------------------|
----------------------|------------------------|----------------------|
----------------------|------------------------|----------------------|



------------------------|----------------------|------------------------|
------------------------|----------------------|------------------------|
--4--5----2--4----4--2--|--4--5----2--4--------|--4--5----2--4----4--2--|
------------------------|----------------------|------------------------|
------------------------|----------------------|------------------------|
------------------------|----------------------|------------------------|



----------------------|----|----|----|----|----|----|----|----|----|----|
----------------------|----|----|----|----|----|----|----|----|----|----|
--4--5----2--4--------|----|----|----|----|----|----|----|----|----|----|
----------------------|----|----|----|----|----|----|----|----|----|----|
----------------------|----|----|----|----|----|----|----|----|----|----|
----------------------|----|----|----|----|----|----|----|----|----|----|



--------------------------|----------------------------------|
--------------------------|--10--10--10--10--10--10--10--10--|
--------------------------|----------------------------------|
--9--9--9--9--9--9--9--9--|----------------------------------|
--------------------------|----------------------------------|
--------------------------|----------------------------------|



--------------------------|----------------------------------|
--------------------------|--10--10--10--10--10--10--10--10--|
--------------------------|----------------------------------|
--9--9--9--9--9--9--9--9--|----------------------------------|
--------------------------|----------------------------------|
--------------------------|----------------------------------|



--------------------------|----------------------------------|
--------------------------|--10--10--10--10--10--10--10--10--|
--------------------------|----------------------------------|
--9--9--9--9--9--9--9--9--|----------------------------------|
--------------------------|----------------------------------|
--------------------------|----------------------------------|



--------------------------|----------------------------------|----|----|----|
--------------------------|--10--10--10--10--10--10--10--10--|----|----|----|
--------------------------|----------------------------------|----|----|----|
--9--9--9--9--9--9--9--9--|----------------------------------|----|----|----|
--------------------------|----------------------------------|----|----|----|
--------------------------|----------------------------------|----|----|----|



----|----|----|----|----|----|----|--------------------------|
----|----|----|----|----|----|----|--------------------------|
----|----|----|----|----|----|----|--4--4--4--4--4--4--4--4--|
----|----|----|----|----|----|----|--4--4--4--4--4--4--4--4--|
----|----|----|----|----|----|----|--2--2--2--2--2--2--2--2--|
----|----|----|----|----|----|----|--------------------------|



--------------------------|--------------------------|
--------------------------|--------------------------|
--9--9--9--9--9--9--9--9--|--2--2--2--2--2--2--2--2--|
--7--7--7--7--7--7--7--7--|--2--2--2--2--2--2--2--2--|
--7--7--7--7--7--7--7--7--|--0--0--0--0--0--0--0--0--|
--------------------------|--------------------------|



--------------------------|--------------------------|
--------------------------|--------------------------|
--7--7--7--7--7--7--7--7--|--4--4--4--4--4--4--4--4--|
--7--7--7--7--7--7--7--7--|--4--4--4--4--4--4--4--4--|
--5--5--5--5--5--5--5--5--|--2--2--2--2--2--2--2--2--|
--------------------------|--------------------------|



--------------------------|------------------------|----------------------|
--------------------------|------------------------|----------------------|
--9--9--9--9--9--9--9--9--|--4--5----2--4----4--2--|--4--5----2--4--------|
--7--7--7--7--7--7--7--7--|------------------------|----------------------|
--7--7--7--7--7--7--7--7--|------------------------|----------------------|
--------------------------|------------------------|----------------------|



------------------------|----------------------|---|---|---|---|
------------------------|----------------------|---|---|---|---|
--4--5----2--4----4--2--|--4--5----2--4--------|---|---|---|---|
------------------------|----------------------|---|---|---|---|
------------------------|----------------------|---|---|---|---|
------------------------|----------------------|---|---|---|---|



--14------7------10----|------------------|-----------------------|
-----------------------|------------------|-----------------------|
-----------------------|------------------|----4----2--6/4-----2--|
-----------------------|------------------|-----------------------|
-----------------------|------------------|----2----0--4/2-----0--|
-----------------------|------------------|-----------------------|



-----------------------|-----------------------|-----------------------|
-----------------------|-----------------------|-----------------------|
----4----2--6/4-----2--|----4----2--6/4-----2--|----4----2--6/4-----2--|
-----------------------|-----------------------|-----------------------|
----2----0--4/2-----0--|----2----0--4/2-----0--|----2----0--4/2-----0--|
-----------------------|-----------------------|-----------------------|



-----------------------|-----------------------|-----------------------|
-----------------------|-----------------------|-----------------------|
----4----2--6/4-----2--|----4----2--6/4-----2--|----4----2--6/4-----2--|
-----------------------|-----------------------|-----------------------|
----2----0--4/2-----0--|----2----0--4/2-----0--|----2----0--4/2-----0--|
-----------------------|-----------------------|-----------------------|



-----------------------|---|---|---|---|---|---|---|---||
-----------------------|---|---|---|---|---|---|---|---||
----4----2--6/4-----2--|---|---|---|---|---|---|---|---||
-----------------------|---|---|---|---|---|---|---|---||
----2----0--4/2-----0--|---|---|---|---|---|---|---|---||
-----------------------|---|---|---|---|---|---|---|---||


albums
tabs

 

1