Search tabs:
Browse artists: 0-9 | A | B | C | D | E | F | G | H | I | J | K | L | M | N | O | P | Q | R | S | T | U | V | W | X | Y | Z
/ / / guitar tab

Nine Inch Nails- Right Where It Belongs
Album: With Teeth (2005)
Tuning: D#,G,C,F,A#,D#

This is one off the new album (which is amazing as usual i might add).
This was originally transcribed for piano.It can be played in pretty much any tuning,
 but this is what i had my guitar in at the time...but this is pretty accurate

Intro/Verse
D#|------------------------7-7-9-|-----------------------9-9-11--|
A#|---------6-6-8--9-9-11--------|---------6-6-7--9-9-11---------|
 F|--6-6-8-----------------------|--6-6-8------------------------|
 C|------------------------------|-------------------------------|
 G|------------------------------|-------------------------------|
D#|------------------------------|-------------------------------|

Rhythm Effect
|---------------------------------|---------------------------------|
|---------------------------------|---------------------------------|
|---8---8---8---8---8---8---8---8-|---6---6---6---6---4---4---1---1-|
|---------------------------------|---------------------------------|
|-6---6---6---6---6---6---6---6---|-4---4---4---4---2---2-----------|
|---------------------------------|-------------------------2---2---|

Chorus
Merge this onto the verse by dropping the last 3 notes of the verse
|------------------------------------------6----------------------|
|--11-11-12----------11-11-12----------7-9----------7-7-6---------|
|------------8-8-10------------8-8-10-----------------------------|
|---------------------------------------------8-8-9--------8-8-9--|
|-----------------------------------------------------------------|
|-----------------------------------------------------------------|

|--------------------------------------------------------------------------|
|--------------------------------------------------------------------------|
|------------------------------------11---11---11---11---10---10---10---10-|
|----6---6---6---6---9---9---9---9-----------------------------------------|
|----------------------------------9----9----9----9----8----8----8----8----|
|--4---4---4---4---7---7---7---7-------------------------------------------|

Outro
|------6-------------6----------------6----------------6---------6--------6-|
|--7-9-----------7-9--------------7-9--------------7-9-------7-9------7-9---|
|--------3-------------4---3-------------3--1------------4---------3--------|
|------------4---------------4-1--------------4-----------------------------|
|-----------------------------------------------4---------------------------|
|---------------------------------------------------------------------------|

|--------------------------------------------------------------------------|
|--------------------------------------------------------------------------|
|------------------------------------11---11---11---11---10---10---10---10-|
|----7---7---7---7---9---9---9---9-----------------------------------------|
|----------------------------------9----9----9----9----8----8----8----8----|
|--5---5---5---5---7---7---7---7-------------------------------------------|

|-----------6----------|
|-------7-9---7~~~~~~~-|
|--4-------------------|
|----------------------|
|----------------------|
|----------------------|


=============================================================
Main Riff Intro/Verse:

E|--------------------6-6-8--|--------------------8-8-10-|
B|-------5-5-7-8-8-10--------|-------5-5-6-8-8-10--------|
G|-5-5-7---------------------|-5-5-7---------------------|
D|---------------------------|---------------------------|
A|---------------------------|---------------------------|
E|---------------------------|---------------------------|

Background Effect Intro/Verse:

E|---------------------------|---------------------------|
B|---------------------------|---------------------------|
G|--7--7--7--7--7--7--7--7---|--5--5--5--5--3--3---------|
D|---------------------------|--------------------3--3---|
A|-5--5--5--5--5--5--5--5----|-3--3--3--3--1--1----------|
E|---------------------------|-------------------1--1----|

Main Riff Chorus: (first 3 notes from this replace last 3 from the chorus)

|-----------------------------------5-------------------|
|-10-10-11-------10-10-11-------6-8---------6-6-5-------|
|----------7-7-9----------7-7-9-------------------------|
|-------------------------------------7-7-8-------7-7-8-|
|-------------------------------------------------------|
|-------------------------------------------------------|

Background Effect Intro/Verse:

|-------------------------------------------------------|
|-------------------------------------------------------|
|---------------------------10--10--10--10--5--5--5--5--|
|---5--5--5--5--8--8--8--8------------------------------|
|--------------------------8---8---8---8---3--3--3--3---|
|--3--3--3--3--6--6--6--6-------------------------------|

Main Riff Outro:

|-----5---------5-------------5--------------5-------5--------5-|
|-6-8-------6-8-----------6-8------------6-8-----6-8------6-8---|
|-------2---------3-2-----------2--0-----------3-------2--------|
|---------3-----------3-0------------3--------------------------|
|--------------------------------------3------------------------|
|---------------------------------------------------------------|

|-----------------------------------------------------|
|-----------------------------------------------------|
|--------------------------10--10--10--10--9--9--9--9-|
|--6--6--6--6--8--8--8--8-----------------------------|
|-------------------------8---8---8---8---7--7--7--7--|
|-4--4--4--4--6--6--6--6------------------------------|

|-----------5----------|
|-------6-8---6--------|
|--3-------------------|
|----------------------|
|----------------------|
|----------------------|


albums
tabs

 

1