Search tabs:
Browse artists: 0-9 | A | B | C | D | E | F | G | H | I | J | K | L | M | N | O | P | Q | R | S | T | U | V | W | X | Y | Z
/ NOFX / Heavy Petting Zoo (1996) / Black And White, The guitar tab


Date: Fri, November 7 1997
From: Peter Ferragine (iginition@yesic.com)
Group: NOFX
Album: Heavy Petting Zoo
Released: 1996 epitaph records
Track: 10
Title: the black and white

x - scratch
: - let ring
pm - palm mute


intro - repeat the first part several times then finish with the second

|-------------------------------------------|-----------|
|-------------------------------------------|-----------|
|-------------------------------------------|-----5:----|
|-2-x-x-x-2-x-x-x-2-4-5-x-x-x-5-x-x-x-x-x-x-|-2-7-5:----|
|-2-x-x-x-2-x-x-x-2-4-5-x-x-x-5-x-x-x-x-x-x-|-2-7-3:----|
|-0-x-x-x-0-x-x-x-0-2-3-x-x-x-3-x-x-x-x-x-x-|-0-5-------|

riff during intro - repeat a couple of times

|-------------------------------------------------|
|-5-5-5-5---5-5-5-5---5-3-----5-5-5-5---5-5-5-5---|
|-------------------------------------------------|
|-------------------------------------------------|
|-------------------------------------------------|
|-------------------------------------------------|

verse - play a couple of times

|---------------------------------------------------------------------------
|---------------------------------------------------------------------------
|-9-9-9-9-9-9-9-9-11-11-11-11-11-11-11-11-7-7-7-7-7-7-7-7--7--7--7--7--7--7-
|-9-9-9-9-9-9-9-9-11-11-11-11-11-11-11-11-7-7-7-7-7-7-7-7--7--7--7--7--7--7-
|-7-7-7-7-7-7-7-7--9--9--9--9--9--9--9--9-5-5-5-5-5-5-5-5--5--5--5--5--5--5-
|---------------------------------------------------------------------------

 -----------------------------------------------------------|
 -----------------------------------------------------------|
 -7-5-5-5-5-5-5-5-5-----------------------------------------|
 -7-5-5-5-5-5-5-5-5-3-3-3-3-3-3-3-3-5-5-5-5-5-5-5-5-5-5-5-5-|
 -5-3-3-3-3-3-3-3-3-3-3-3-3-3-3-3-3-5-5-5-5-5-5-5-5-5-5-5-5-|
 -------------------1-1-1-1-1-1-1-1-3-3-3-3-3-3-3-3-3-3-3-3-|

chorus - play the first part twice

|-------------------------------------------------------------------------
|-------------------------------------------------------------------------
|---------------------------------5-5-5-5-5-5-5-5-10-10-10-10-10-10-10-10-
|-7-7-7-7-7-7-7-7-5-5-5-5-5-5-5-5-5-5-5-5-5-5-5-5-10-10-10-10-10-10-10-10-
|-7-7-7-7-7-7-7-7-5-5-5-5-5-5-5-5-3-3-3-3-3-3-3-3--8--8--8--8--8--8--8--8-
|-5-5-5-5-5-5-5-5-3-3-3-3-3-3-3-3-----------------------------------------

 -----------------------------------------------------------------|
 -----------------------------------------------------------------|
 -5-5-5-5-5-5-5-5-------------------------------------------------|
 -5-5-5-5-5-5-5-5-5-5-5-5-5-5-5-5-3-3-x-x-3-3-x-x-3-3-x-x-3-3-x-x-|
 -3-3-3-3-3-3-3-3-5-5-5-5-5-5-5-5-3-3-x-x-3-3-x-x-3-3-x-x-3-3-x-x-|
 -----------------3-3-3-3-3-3-3-3-1-1-x-x-1-1-x-x-1-1-x-x-1-1-x-x-|

then...

|-----------------------------------------------------------------|
|-----------------------------------------------------------------|
|-5-5-5-5-5-5-5-5-------------------------------------------------|
|-5-5-5-5-5-5-5-5-5-5-5-5-5-5-5-5-3-3-3-3-3-3-3-3-5-5-5-5-5-5-5-5-|
|-3-3-3-3-3-3-3-3-5-5-5-5-5-5-5-5-3-3-3-3-3-3-3-3-5-5-5-5-5-5-5-5-|
|-----------------3-3-3-3-3-3-3-3-1-1-1-1-1-1-1-1-3-3-3-3-3-3-3-3-|

outro - play a couple times

pm____________________________________|
|-------------------------------------|
|-------------------------------------|
|-5-5-------5-5-------5-5-----7-7-----|
|-5-5-5-3---5-5-5-7---5-5-5-7-7-7-7-5-|
|-3-3-5-3---3-3-5-7---3-3-5-7-5-5-7-5-|
|-----3-1-------3-5-------3-5-----5-3-|

lyrics

mr. mcarthy killed the light, he didn't wake his lovely wife
he left the key inside the door, woke on the wrong side of the bed
she can't remember what he said, but she sure knew what he had done
little choices in a, a little town maybe a, little man is right to be afraid
biblic moralization, identity frustration 
confused man cannot follow his heart
so he may be fucking her, but he's thinking about him
catherine mckinnon does exist, she likes to call herself a feminist
a crusader who fights the patriarch, but what she really hates is sex
erotic images oppress, and debase women as a whole
simple solutions created by black and white thinking
to bad the world not work that way
catherine should be busy porkin', that dolt andrea dworkin
i think they need a good hard fuck
'cause she may be off her back now she needs to get off ours
the littleman sits all alone, his sexuality's been cut in stone
he doesn't love her, she don't really care
two victims of the black and white
 


NOFX albums
2003 War on Errorism
2000 Pump Up the Valuum
1997 So Long And Thanks For All The Shoes
1996 Heavy Petting Zoo
1995 I Heard They Suck Live!!
1994 Punk in Drublic
1993 The Longest Line
1993 White Trash, Two Heebs & A Bean
1991 Ribbed
1989 S & M Airlines
Heavy Petting Zoo tabs
01Hobophobic (Scared Of Bums) tabbass tab
02Philthy Phil Philanthropist tabbass tab
03Freedom Lika Shopping Cart tabbass tab
04Bleeding Heart Disease tabbass tab
05Hot Dog In A Hallway tabbass tab
06Release The Hostages tabbass tab
07Liza tabbass tab
08What's The Matter With Kids Today? tabbass tab
09Love Story tabbass tab
10Black And White, The tabbass tab
11Whatever Didi Wants tabbass tab
12August 8th tabbass tab
13Drop The World tabbass tab

 

1