Search tabs:
Browse artists: 0-9 | A | B | C | D | E | F | G | H | I | J | K | L | M | N | O | P | Q | R | S | T | U | V | W | X | Y | Z
/ NOFX / Heavy Petting Zoo (1996) / Bleeding Heart Disease guitar tab


Date: Wed, November 5 1997
From: Peter Ferragine (iginition@yesic.com)
Group: NOFX
Album: Heavy Petting Zoo
Released: 1996 epitaph records
Track: 4
Title: bleeding heart disease

x - scratch
/ \ - slide


intro - when you play the scratches (x) rest your fingers not too hard and
        not too light on 16 so you still get a muffled sound of the chord
                         16
                         14

|----------------------------------------------------------------|
|----------------------------------------------------------------|
|-14/16-16-16-x-x-x-x-14/16-16-16-x-x-x-x-14/16-16-16-x-x-x-x-16-|
|-14/16-16-16-x-x-x-x-14/16-16-16-x-x-x-x-14/16-16-16-x-x-x-x-16-|
|-12/14-14-14-x-x-x-x-12/14-14-14-x-x-x-x-12/14-14-14-x-x-x-x-14-|
|----------------------------------------------------------------|

verse - play twice

|---------------------------------------------------------------
|---------------------------------------------------------------
|-----------------------------------------------9-9-9-9-9-9-9-9-
|-9-x-x-x-x-9-9-9-8-8-8-6-6-x-x-x-x-6-6-6-4-4-4-9-9-9-9-9-9-9-9-
|-9-x-x-x-x-9-9-9-8-8-8-6-6-x-x-x-x-6-6-6-4-4-4-7-7-7-7-7-7-7-7-
|-7-x-x-x-x-7-7-7-6-6-6-4-4-x-x-x-x-4-4-4-2-2-2-----------------

 -----------------------------------------|
 -----------------------------------------|
 -----------------------------------------|
 -5-5-5-5-5-5-5-5-9-9-x-x-x-x-9-9-x-x-x-x-|
 -5-5-5-5-5-5-5-5-9-9-x-x-x-x-9-9-x-x-x-x-|
 -3-3-3-3-3-3-3-3-7-7-x-x-x-x-7-7-x-x-x-x-|

then... - play twice

|-----------------------------------------------------------------
|-----------------------------------------------------------------
|-----------------9-9-9-9-9-9-9-9---------------------------------
|-6-6-6-6-6-6-6-6-9-9-9-9-9-9-9-9-9-9-9-9-9-9-9-9-8-8-8-8-8-8-8-8-
|-6-6-6-6-6-6-6-6-7-7-7-7-7-7-7-7-9-9-9-9-9-9-9-9-8-8-8-8-8-8-8-8-
|-4-4-4-4-4-4-4-4-----------------7-7-7-7-7-7-7-7-6-6-6-6-6-6-6-6-

 -----------------------------------------------------------------|
 -----------------------------------------------------------------|
 -----------------------------------------------------------------|
 -7-7-7-7-7-7-7-7-6-6-6-6-6-6-6-6-9-9-9-9-x-x-x-x-9-9-9-9-x-x-x-x-|
 -7-7-7-7-7-7-7-7-6-6-6-6-6-6-6-6-9-9-9-9-x-x-x-x-9-9-9-9-x-x-x-x-|
 -5-5-5-5-5-5-5-5-4-4-4-4-4-4-4-4-7-7-7-7-x-x-x-x-7-7-7-7-x-x-x-x-|

chorus - repeat a few times

|-------------------------|
|-------------------------|
|-------------------9-9-x-|
|-9-x-x-9-x-x-7-6-x-9-9-x-|
|-9-x-x-9-x-x-7-6-x-7-7-x-|
|-7-x-x-7-x-x-5-4-x-------|

then... - play twice

|-----------------------------------------------------------------|
|-----------------------------------------------------------------|
|-----------------------------------------------------------------|
|-9-9-9-9-9-9-9-9-7-7-7-7-7-7-7-7-6-6-6-6-6-6-6-6-5-5-5-5-5-5-5-5-|
|-9-9-9-9-9-9-9-9-7-7-7-7-7-7-7-7-6-6-6-6-6-6-6-6-5-5-5-5-5-5-5-5-|
|-7-7-7-7-7-7-7-7-5-5-5-5-5-5-5-5-4-4-4-4-4-4-4-4-3-3-3-3-3-3-3-3-|

then...

|----------------------------------------------------------------|
|----------------------------------------------------------------|
|-14/16-16-16-x-x-x-x-14/16-16-16-x-x-x-x-14/16-16-16-x-x-x-x-16-|
|-14/16-16-16-x-x-x-x-14/16-16-16-x-x-x-x-14/16-16-16-x-x-x-x-16-|
|-12/14-14-14-x-x-x-x-12/14-14-14-x-x-x-x-12/14-14-14-x-x-x-x-14-|
|----------------------------------------------------------------|

chorus 2 - repeat a few times

|-------------------------|
|-------------------------|
|-------------------9-9-x-|
|-9-x-x-9-x-x-7-6-x-9-9-x-|
|-9-x-x-9-x-x-7-6-x-7-7-x-|
|-7-x-x-7-x-x-5-4-x-------|

then...

|---------------------------------------------------------------
|---------------------------------------------------------------
|-----------------------------------------------9-9-9-9-9-9-9-9-
|-9-x-x-x-x-9-9-9-8-8-8-6-6-x-x-x-x-6-6-6-4-4-4-9-9-9-9-9-9-9-9-
|-9-x-x-x-x-9-9-9-8-8-8-6-6-x-x-x-x-6-6-6-4-4-4-7-7-7-7-7-7-7-7-
|-7-x-x-x-x-7-7-7-6-6-6-4-4-x-x-x-x-4-4-4-2-2-2-----------------

 -----------------------------------------|
 -----------------------------------------|
 -----------------------------------------|
 -5-5-5-5-5-5-5-5-9-9-x-x-x-x-9-9-x-x-x-x-|
 -5-5-5-5-5-5-5-5-9-9-x-x-x-x-9-9-x-x-x-x-|
 -3-3-3-3-3-3-3-3-7-7-x-x-x-x-7-7-x-x-x-x-|

lyrics

how money polluted my mind, 
dough what our lives are lived for, rae just a crazy aussie
me the generation forges on
fo dder for corporations, sew wing ours lips together
la such a nice place to get shot
but don't forget the t it follows liber in the constitution
following the part about pursuit
of happiness the bi product of colonial precious metal mine extracts
which brings us back to dough
do do do do do do do, do do do do do do do, do do do do do do do
today i saw a kid torture a cat, too much leisure teenage norman rockwell
paints it black!
how did the chain get started, mo re is what everyone wants
ney dy is what none of us are
co operation died last night, rup tured bleeding heart forsight
me i'm just a loo
so don't expect the best you won't be disapointed when you take a 
bite and watch the worm crawl back inside
don't believe the fairy tails of million dollar happiness
los angelestic lifestyles
the pursuit of million dollar happiness
do do do do do do do, do do do do do do do, do do do do do do do
happiness was killed we watched it bleed, some say it died from hate
some say from bleeding heart disease



NOFX albums
2003 War on Errorism
2000 Pump Up the Valuum
1997 So Long And Thanks For All The Shoes
1996 Heavy Petting Zoo
1995 I Heard They Suck Live!!
1994 Punk in Drublic
1993 The Longest Line
1993 White Trash, Two Heebs & A Bean
1991 Ribbed
1989 S & M Airlines
Heavy Petting Zoo tabs
01Hobophobic (Scared Of Bums) tabbass tab
02Philthy Phil Philanthropist tabbass tab
03Freedom Lika Shopping Cart tabbass tab
04Bleeding Heart Disease tabbass tab
05Hot Dog In A Hallway tabbass tab
06Release The Hostages tabbass tab
07Liza tabbass tab
08What's The Matter With Kids Today? tabbass tab
09Love Story tabbass tab
10Black And White, The tabbass tab
11Whatever Didi Wants tabbass tab
12August 8th tabbass tab
13Drop The World tabbass tab

 

1