Search tabs:
Browse artists: 0-9 | A | B | C | D | E | F | G | H | I | J | K | L | M | N | O | P | Q | R | S | T | U | V | W | X | Y | Z
/ NOFX / Heavy Petting Zoo (1996) / Drop The World guitar tab


Date: Thurs, November 13 1997
From: Peter Ferragine (iginition@yesic.com)
Group: NOFX
Album: Heavy Petting Zoo
Released: 1996 epitaph records
Track: 13
Title: drop the world

pm - palm mute


intro

pm________________________________________________________________
|-----------------------------------------------------------------
|-----------------------------------------------------------------
|-----------------------------------------------------------------
|-----------------------------------------------------------------
|-1-1-1-1-1-1-1-1-0-0-0-0-0-0-0-0-----------------0-0-0-0---------
|---------------------------------3-3-3-3-3-3-3-3---------3-3-3-3-

pm________________________________________________________________
 -----------------------------------------------------------------
 -----------------------------------------------------------------
 -----------------------------------------------------------------
 -----------------------------------------------------------------
 -3-3-3-3-3-3-3-3-2-2-2-2-2-2-2-2-0-0-0-0-0-0-0-0-2-2-2-2-0-0-0-0-
 -----------------------------------------------------------------

pm___________________________________________________________________
 --------------------------------------------------------------------
 --------------------------------------------------------------------
 -------------0----------------0----------------0----------------0---
 -------0---4---4--------0-0-----4--------0---4---4--------0-0-----4-
 -2-2-2---2--------2-2-2-----2------2-2-2---2--------2-2-2-----2-----
 --------------------------------------------------------------------

pm______________________________________|
 ---------------------------------------|
 ---------------------------------------|
 -------------2----------------2-----0--|
 -------2---6---6--------2-2-----6------|
 -4-4-4---4--------4-4-4-----4----------|
 ---------------------------------------|

verse

|------------------------------------------------------------------
|------------------------------------------------------------------
|-7-7-7-7-7-7-7-7-5-5-5-5-5-5-5-5-7-7-7-7-7-7-7-7-5-5-5-5-4-4-4-4--
|-7-7-7-7-7-7-7-7-5-5-5-5-5-5-5-5-7-7-7-7-7-7-7-7-5-5-5-5-4-4-4-4--
|-5-5-5-5-5-5-5-5-3-3-3-3-3-3-3-3-5-5-5-5-5-5-5-5-3-3-3-3-2-2-2-2--
|------------------------------------------------------------------

 ------------------------------------------------------------------
 ------------------------------------------------------------------
 ------------------------------------------------------------------
 -9-9-9-9-9-9-9-9-7-7-7-7-7-7-7-7-5-5-5-5-5-5-5-5-7-7-7-7-5-5-5-5--
 -9-9-9-9-9-9-9-9-7-7-7-7-7-7-7-7-5-5-5-5-5-5-5-5-7-7-7-7-5-5-5-5--
 -7-7-7-7-7-7-7-7-5-5-5-5-5-5-5-5-3-3-3-3-3-3-3-3-5-5-5-5-3-3-3-3--

 ------------------------------------------------------------------|
 ------------------------------------------------------------------|
 -5-5-5-5-5-5-5-5-5-5-5-5-5-5-5-5-7-7-7-7-7-7-7-7-7-7-7-7-7-7-7-7--|
 -5-5-5-5-5-5-5-5-5-5-5-5-5-5-5-5-7-7-7-7-7-7-7-7-7-7-7-7-7-7-7-7--|
 -3-3-3-3-3-3-3-3-3-3-3-3-3-3-3-3-5-5-5-5-5-5-5-5-5-5-5-5-5-5-5-5--|
 ------------------------------------------------------------------|
 
chorus

|-----------------------------------------------------------------
|-----------------------------------------------------------------
|---------7-7-7-7-5-5-5-5-7-7-7-7---------------------------------
|-5-5-5-5-7-7-7-7-5-5-5-5-7-7-7-7-5-5-5-5-5-5-5-5-7-7-7-7-7-7-7-7-
|-5-5-5-5-5-5-5-5-3-3-3-3-5-5-5-5-5-5-5-5-5-5-5-5-7-7-7-7-7-7-7-7-
|-3-3-3-3-------------------------3-3-3-3-3-3-3-3-5-5-5-5-5-5-5-5-

 -------------------------------------------------|
 -------------------------------------------------|
 -------------------------------------------------|
 -10-10-10-10-10-10-10-10-12-12-12-12-12-12-12-12-|
 -10-10-10-10-10-10-10-10-12-12-12-12-12-12-12-12-|
 --8--8--8--8--8--8--8--8-10-10-10-10-10-10-10-10-|

lyrics

he won the race, the judges concluded, he was the better man
he had the will to win, aahhhh...
a hesitate, a one time show and place, himself would not allow
he had to be the best, aahhhh...
he had denied, his urges 'cause they would have drained his strength
that battle had been won with side effects a few
he may have dropped the world, he would not let us down
away i hope she's in a better place, aahhhh...
she aced the test, a grade above the rest, she felt the curve
a 93% was not enough to feed her fix she needs that perfect score
endorphin rush she loves, it would opiate her aahhhh...
she had denied, all allegations of her loneliness
that battle had been won with scars still under wraps
she may have dropped the world, she would not let us down
endorphin rush she loved, she may have dropped the world



NOFX albums
2003 War on Errorism
2000 Pump Up the Valuum
1997 So Long And Thanks For All The Shoes
1996 Heavy Petting Zoo
1995 I Heard They Suck Live!!
1994 Punk in Drublic
1993 The Longest Line
1993 White Trash, Two Heebs & A Bean
1991 Ribbed
1989 S & M Airlines
Heavy Petting Zoo tabs
01Hobophobic (Scared Of Bums) tabbass tab
02Philthy Phil Philanthropist tabbass tab
03Freedom Lika Shopping Cart tabbass tab
04Bleeding Heart Disease tabbass tab
05Hot Dog In A Hallway tabbass tab
06Release The Hostages tabbass tab
07Liza tabbass tab
08What's The Matter With Kids Today? tabbass tab
09Love Story tabbass tab
10Black And White, The tabbass tab
11Whatever Didi Wants tabbass tab
12August 8th tabbass tab
13Drop The World tabbass tab

 

1