Search tabs:
Browse artists: 0-9 | A | B | C | D | E | F | G | H | I | J | K | L | M | N | O | P | Q | R | S | T | U | V | W | X | Y | Z
/ NOFX / Heavy Petting Zoo (1996) / Freedom Lika Shopping Cart guitar tab


Date: Mon, November 3 1997
From: Peter Ferragine (iginition@yesic.com)
Group: NOFX 
Album: Heavy Petting Zoo
Released: 1996 epitaph records
Track: 3
Title: freedom lika shopping cart

pm - palm mute


intro

guitar 1 - play the first part once then keep repeating the second part

|----------------------|-----------------------------------------------------
|----------------------|-----------------------------------------------------
|----------------------|-----------------------------------------------------
|-5-5-5-5-5--5-5-5-5-5-|-----------------------------------------------------
|-5-5-5-5-5--5-5-5-5-5-|-7--7-5-5-3-3-3-3--7--7-5-5-7-7-7-7--5-5-3-3-2-2-2-2-
|-3-3-3-3-3--3-3-3-3-3-|-----------------------------------------------------

 -----------------|
 -----------------|
 -----------------|
 -----------------|
 -3-3-2-2-0-0-0-0-|
 -----------------|

guitar 2 - comes in with

|---------------------------------------------------------------------------
|-10-10-10-10-10-10-10-10-8-8-8-8-8-8-8-8-8-8-8-8-8-8-8-8-13-13-13-13-13-13-
|---------------------------------------------------------------------------
|---------------------------------------------------------------------------
|---------------------------------------------------------------------------
|---------------------------------------------------------------------------

 ------------------------------------------------------------------------
 -13-13-12-12-12-12-10-10-10-10--10-10-10-10-10-10-10-10-8-8-8-8-8-8-8-8-
 ------------------------------------------------------------------------
 ------------------------------------------------------------------------
 ------------------------------------------------------------------------
 ------------------------------------------------------------------------

 ---------------------------------|
 -8-8-8-8-8-8-8-8-9-9-9-9-9-9-9-9-|
 ---------------------------------|
 ---------------------------------|
 ---------------------------------|
 ---------------------------------|

chorus - play twice

|-----------------------------------------------------------------|
|-----------------------------------------------------------------|
|-------------------------------------------------7-7-7-7-7-7-7-7-|
|-7-7-7-7-7-7-7-7-2-2-2-2-2-2-2-2-5-5-5-5-5-5-5-5-7-7-7-7-7-7-7-7-|
|-7-7-7-7-7-7-7-7-2-2-2-2-2-2-2-2-5-5-5-5-5-5-5-5-5-5-5-5-5-5-5-5-|
|-5-5-5-5-5-5-5-5-0-0-0-0-0-0-0-0-3-3-3-3-3-3-3-3-----------------|

verse - play twice

pm________________________________________________________________|
|-----------------------------------------------------------------|
|-----------------------------------------------------------------|
|---------------------------------7-7-7-7-7-7-7-7-4-4-4-4-4-4-4-4-|
|-7-7-7-7-7-7-7-7-4-4-4-4-4-4-4-4-7-7-7-7-7-7-7-7-4-4-4-4-4-4-4-4-|
|-7-7-7-7-7-7-7-7-4-4-4-4-4-4-4-4-5-5-5-5-5-5-5-5-2-2-2-2-2-2-2-2-|
|-5-5-5-5-5-5-5-5-2-2-2-2-2-2-2-2---------------------------------|

"sleeping under rays..."

|-------------------------------------------------------------
|-------------------------------------------------------------
|-------------------------6-6-6-6-6-6-7-7-7-7-7-7-4-4-4-4-4-4-
|-7-7-7-7-7-7-2-2-2-2-2-2-6-6-6-6-6-6-7-7-7-7-7-7-4-4-4-4-4-4-
|-7-7-7-7-7-7-2-2-2-2-2-2-4-4-4-4-4-4-5-5-5-5-5-5-2-2-2-2-2-2-
|-5-5-5-5-5-5-0-0-0-0-0-0-------------------------------------

 -------------------------------------|
 -------------------------------------|
 -5-5-5-5-5-5-6-6-6-6-6-6-7-7-7-7-7-7-|
 -5-5-5-5-5-5-6-6-6-6-6-6-7-7-7-7-7-7-|
 -3-3-3-3-3-3-4-4-4-4-4-4-5-5-5-5-5-5-|
 -------------------------------------|

bridge

pm________________________________________________________________|
|-----------------------------------------------------------------|
|-----------------------------------------------------------------|
|-------------------------------------------------7-7-7-7-7-7-7-7-|
|-7-7-7-7-7-7-7-7-2-2-2-2-2-2-2-2-5-5-5-5-5-5-5-5-7-7-7-7-7-7-7-7-|
|-7-7-7-7-7-7-7-7-2-2-2-2-2-2-2-2-5-5-5-5-5-5-5-5-5-5-5-5-5-5-5-5-|
|-5-5-5-5-5-5-5-5-0-0-0-0-0-0-0-0-3-3-3-3-3-3-3-3-----------------|

lyrics

a christian, an anarchist slash prostitute figures out the true meaning
of freedom, not freedom like america, freedom like a shopping cart
kick back, no tense, you gotta bag of grub cost you about 50 cents
no fear, no fuckin' feat, malt liquor tastes much better on the street
crustin', a way of life for heroines and heroes who hitch hike the road
to eden, not eden like the garden state, eden like the state of mind
kick back, cheap thrills, you'll do anythin for a laugh even if it kills you
the bridge, you took it out, the ticket takers suddenly lost count
sleeping under rays, your teeth crumbling away
say goodbye to all responsibility, you never wanted it man
wasting time whenever you get the chance which happens to be all the time
kick back, free meals, a couple times a day you make a couple of shady deals
no work, no fuckin' pay, cardboard condominium by the bay
between the red and black, you're never going back
say goodbye to all responsibility, you never wanted it man



NOFX albums
2003 War on Errorism
2000 Pump Up the Valuum
1997 So Long And Thanks For All The Shoes
1996 Heavy Petting Zoo
1995 I Heard They Suck Live!!
1994 Punk in Drublic
1993 The Longest Line
1993 White Trash, Two Heebs & A Bean
1991 Ribbed
1989 S & M Airlines
Heavy Petting Zoo tabs
01Hobophobic (Scared Of Bums) tabbass tab
02Philthy Phil Philanthropist tabbass tab
03Freedom Lika Shopping Cart tabbass tab
04Bleeding Heart Disease tabbass tab
05Hot Dog In A Hallway tabbass tab
06Release The Hostages tabbass tab
07Liza tabbass tab
08What's The Matter With Kids Today? tabbass tab
09Love Story tabbass tab
10Black And White, The tabbass tab
11Whatever Didi Wants tabbass tab
12August 8th tabbass tab
13Drop The World tabbass tab

 

1