Search tabs:
Browse artists: 0-9 | A | B | C | D | E | F | G | H | I | J | K | L | M | N | O | P | Q | R | S | T | U | V | W | X | Y | Z
/ NOFX / Heavy Petting Zoo (1996) / Hobophobic (Scared Of Bums) guitar tab


Date: Sun, November 2 1997
From: Peter Ferragine (iginition@yesic.com)
Group: NOFX
Album: Heavy Petting Zoo
Released: 1996 epitaph records
Track: 1
Title: hobophobic (scared of bums)

verse - play this until chorus

|------------------------------------------------------------------|
|------------------------------------------------------------------|
|---------7-7-7-7---------5-5-5-5----------7-7-7-7---------5-5-5-5-|
|-5-5-5-5-7-7-7-7-7-7-7-7-5-5-5-5--5-5-5-5-7-7-7-7-7-7-7-7-5-5-5-5-|
|-5-5-5-5-5-5-5-5-7-7-7-7-3-3-3-3--5-5-5-5-5-5-5-5-7-7-7-7-3-3-3-3-|
|-3-3-3-3---------5-5-5-5----------3-3-3-3---------5-5-5-5---------|

chorus - play this then play the verse again

|-----------------------------------------------------------------|
|-----------------------------------------------------------------|
|-4-4-4-4-4-4-4-4-5-5-5-5-5-5-5-5---------7-7-7-7---------5-5-5-5-|
|-4-4-4-4-4-4-4-4-5-5-5-5-5-5-5-5-5-5-5-5-7-7-7-7-7-7-7-7-5-5-5-5-|
|-2-2-2-2-2-2-2-2-3-3-3-3-3-3-3-3-5-5-5-5-5-5-5-5-7-7-7-7-3-3-3-3-|
|---------------------------------3-3-3-3---------5-5-5-5---------|

lyrics

hobo, i'm hobophobic so what ah ah ah, scared of bums 
not just because they stink bad, not just because they're crackers
from drinking to much lysol
let them be, just don't get fucking near me scared of bums ah ah ah
infested with microscopic bugs, and endocrine systematic doo doo
why don't they get a job



NOFX albums
2003 War on Errorism
2000 Pump Up the Valuum
1997 So Long And Thanks For All The Shoes
1996 Heavy Petting Zoo
1995 I Heard They Suck Live!!
1994 Punk in Drublic
1993 The Longest Line
1993 White Trash, Two Heebs & A Bean
1991 Ribbed
1989 S & M Airlines
Heavy Petting Zoo tabs
01Hobophobic (Scared Of Bums) tabbass tab
02Philthy Phil Philanthropist tabbass tab
03Freedom Lika Shopping Cart tabbass tab
04Bleeding Heart Disease tabbass tab
05Hot Dog In A Hallway tabbass tab
06Release The Hostages tabbass tab
07Liza tabbass tab
08What's The Matter With Kids Today? tabbass tab
09Love Story tabbass tab
10Black And White, The tabbass tab
11Whatever Didi Wants tabbass tab
12August 8th tabbass tab
13Drop The World tabbass tab

 

1