Search tabs:
Browse artists: 0-9 | A | B | C | D | E | F | G | H | I | J | K | L | M | N | O | P | Q | R | S | T | U | V | W | X | Y | Z
/ NOFX / Heavy Petting Zoo (1996) / Hot Dog In A Hallway guitar tab


Date: Thurs, November 6 1997
From: Peter Ferragine (iginition@yesic.com)
Group: NOFX
Album: Heavy Petting Zoo
Released: 1996 epitaph records
Track: 5
Title: hotdog in a hallway

x - scratch
/ \ - slide
( ) - optional


intro - played with a wah-wah or you can play the chords in the brackets 
        and it kinda sounds the same, but nothing beats the wah-wah   

|--------------------------------|
|--------------------------------|
|--------------------------------|
|-7/(8)-7/(8)--7-x-x-x-x-x-x-x-x-|
|-7/(8)-7/(8)--7-x-x-x-x-x-x-x-x-|
|-5/(6)-5/(6)--5-x-x-x-x-x-x-x-x-|

post intro - play the first part a few times then finish with the second part
      
|---------------------------------|---------------------|
|---------------5-------6---------|---------------5-----|
|-------6-----6-------7---------7-|-------6-----6----7--|
|-----7-----6-------7---------8---|-----7-----6------7--|
|---7-----4-------5---------8-----|---7-----4--------5--|
|-5-----------------------6-------|-5-------------------|

verse - repeat a few times

|-5--5-5--4--4-4--5--5-5--6--6-6-6-|
|-5--5-5--5--5-5--6--6-6--6--6-6-6-|
|-6--6-6--6--6-6--7--7-7--5--5-5-5-|
|-7--7-7--6--6-6--7--7-7--8--8-8-8-|
|-7--7-7--4--4-4--5--5-5--8--8-8-8-|
|-5--5-5------------------6--6-6-6-|

then with distortion... repeat a few times

|--------------------------------|
|--------------------------------|
|--------6--6-6--7--7-7----------|
|-7--7-7-6--6-6--7--7-7-8--8-8-8-|
|-7--7-7-4--4-4--5--5-5-8--8-8-8-|
|-5--5-5----------------6--6-6-6-|

lyrics

she'll have another piece of pie, she'll have a double reuben rye
she works hard at eating well that's why i love her
she's got a couple of pony kegs, her arms are bigger then my legs
and when she holds me i can't breathe, that's why i love her
yeah i'm her butter she's my bread, she's like a mobile waterbed
and when i get on top of her i can't touch the mattress
and when her flesh begins to sag, she's like a human sleeping bag
i feel so cozy safe and warm, she's my insulation
i always know just where she sat, and when she's on me i get flat
some broken ribs, a punctured lung, that's why i love her
she's my phillie, i'm her stud, her bean is bigger then my pud
it's like feeding a tic tac to a whale, that's why i love her



NOFX albums
2003 War on Errorism
2000 Pump Up the Valuum
1997 So Long And Thanks For All The Shoes
1996 Heavy Petting Zoo
1995 I Heard They Suck Live!!
1994 Punk in Drublic
1993 The Longest Line
1993 White Trash, Two Heebs & A Bean
1991 Ribbed
1989 S & M Airlines
Heavy Petting Zoo tabs
01Hobophobic (Scared Of Bums) tabbass tab
02Philthy Phil Philanthropist tabbass tab
03Freedom Lika Shopping Cart tabbass tab
04Bleeding Heart Disease tabbass tab
05Hot Dog In A Hallway tabbass tab
06Release The Hostages tabbass tab
07Liza tabbass tab
08What's The Matter With Kids Today? tabbass tab
09Love Story tabbass tab
10Black And White, The tabbass tab
11Whatever Didi Wants tabbass tab
12August 8th tabbass tab
13Drop The World tabbass tab

 

1