Search tabs:
Browse artists: 0-9 | A | B | C | D | E | F | G | H | I | J | K | L | M | N | O | P | Q | R | S | T | U | V | W | X | Y | Z
/ NOFX / Heavy Petting Zoo (1996) / Liza guitar tab


Date: Thurs, November 6 1997
From: Peter Ferragine (iginition@yesic.com)
Group: NOFX
Album: Heavy Petting Zoo
Released: 1996 epitaph records
Track: 7
Title: liza

pm - palm mute
x - scratch


intro - play twice

pm_________________________________________________
|--------------------------------------------------
|--------------------------------------------------
|-4-4--2-4-4--2-4-6-7-6-4-4--2-4-4--2-4-6-7-6------
|-4-4--2-4-4--2-4-6-7-6-4-4--2-4-4--2-4-6-7-6-7-7--
|-2-2--0-2-2--0-2-4-5-4-2-2--0-2-2--0-2-4-5-4-7-7--
|---------------------------------------------5-5--
pm________________________________________
 -----------------------------------------|
 -----------------------------------------|
 ------------6-7-6-----------------6-7-6--|
 -5-7-7--5-7-6-7-6-7-7--5-7-7--5-7-6-7-6--|
 -5-7-7--5-7-4-5-4-7-7--5-7-7--5-7-4-5-4--|
 -3-5-5--3-5-------5-5--3-5-5--3-5--------|

verse - play twice

     pm_____________________________________________________________
|-------------------------------------------------------------------
|-------------------------------------------------------------------
|-7-7---7-7-7-7-7-7-7-7-7-7-7-7-7-7---------------------------------
|-7-7---7-7-7-7-7-7-7-7-7-7-7-7-7-7-7-7-7-7-7-7-7-7-7-7-7-7-7-7-7-7-
|-5-5---5-5-5-5-5-5-5-5-5-5-5-5-5-5-7-7-7-7-7-7-7-7-7-7-7-7-7-7-7-7-
|-----------------------------------5-5-5-5-5-5-5-5-5-5-5-5-5-5-5-5-

pm______________________________________________________________
 -----------------------------------------------------------------|
 -----------------------------------------------------------------|
 -----------------------------------------------------------------|
 -3-3-3-3-3-3-3-3-3-3-3-3-3-3-3-3-7-7-7-7-7-7-7-7-7-7-7-7-7-7-7-7-|
 -3-3-3-3-3-3-3-3-3-3-3-3-3-3-3-3-7-7-7-7-7-7-7-7-7-7-7-7-7-7-7-7-|
 -1-1-1-1-1-1-1-1-1-1-1-1-1-1-1-1-5-5-5-5-5-5-5-5-5-5-5-5-5-5-5-5-|      

then... - play twice

|-----------------------------------------------------------------|
|-----------------------------------------------------------------|
|-7-7-7-7-7-7-7-7-------------------------------------------------|
|-7-7-7-7-7-7-7-7-3-3-3-3-3-3-3-3-5-5-5-5-5-5-5-5-8-8-8-8-8-8-8-8-|
|-5-5-5-5-5-5-5-5-3-3-3-3-3-3-3-3-5-5-5-5-5-5-5-5-8-8-8-8-8-8-8-8-|
|-----------------1-1-1-1-1-1-1-1-3-3-3-3-3-3-3-3-6-6-6-6-6-6-6-6-|

then...

guitar 1 - same as intro

guitar 2

|--------------------------------------------------------|
|-x-x-7--x-x-7--x-x-7--x-x-7--x-x-3--x-x-3--x-x-3--x-x-3-|
|-x-x-7--x-x-7--x-x-7--x-x-7--x-x-4--x-x-4--x-x-4--x-x-4-|
|-x-x-7--x-x-7--x-x-7--x-x-7--x-x-4--x-x-4--x-x-4--x-x-4-|
|-x-x-5--x-x-5--x-x-5--x-x-5--x-x-2--x-x-2--x-x-2--x-x-2-|
|--------------------------------------------------------|

|-x-x-5--x-x-5--x-x-5--x-x-5--x-x-2--x-x-2--x-x-2--x-x-2-|
|-x-x-5--x-x-5--x-x-5--x-x-5--x-x-2--x-x-2--x-x-2--x-x-2-|
|-x-x-6--x-x-6--x-x-6--x-x-6--x-x-2--x-x-2--x-x-2--x-x-2-|
|-x-x-7--x-x-7--x-x-7--x-x-7--x-x-4--x-x-4--x-x-4--x-x-4-|
|--------------------------------------------------------|
|--------------------------------------------------------|

chorus - play twice

|-----------------------------------------------------------------|
|-----------------------------------------------------------------|
|-7-7-7-7-7-7-7-7-------------------------------------------------|
|-7-7-7-7-7-7-7-7-7-7-7-7-7-7-7-7-3-3-3-3-3-3-3-3-7-7-7-7-7-7-7-7-|
|-5-5-5-5-5-5-5-5-7-7-7-7-7-7-7-7-3-3-3-3-3-3-3-3-7-7-7-7-7-7-7-7-|
|-----------------5-5-5-5-5-5-5-5-1-1-1-1-1-1-1-1-5-5-5-5-5-5-5-5-|

outro

     pm_____________________________________________________________
|-------------------------------------------------------------------
|-------------------------------------------------------------------
|-7-7---7-7-7-7-7-7-7-7-7-7-7-7-7-7---------------------------------
|-7-7---7-7-7-7-7-7-7-7-7-7-7-7-7-7-7-7-7-7-7-7-7-7-7-7-7-7-7-7-7-7-
|-5-5---5-5-5-5-5-5-5-5-5-5-5-5-5-5-7-7-7-7-7-7-7-7-7-7-7-7-7-7-7-7-
|-----------------------------------5-5-5-5-5-5-5-5-5-5-5-5-5-5-5-5-

pm_______________________________ 
 ------------------------------------|
 ------------------------------------|
 ------------------------------------|
 -3-3-3-3-3-3-3-3-3-3-3-3-3-3-3-3--7-|
 -3-3-3-3-3-3-3-3-3-3-3-3-3-3-3-3--7-|
 -1-1-1-1-1-1-1-1-1-1-1-1-1-1-1-1--5-|

lyrics

she's been around a couple years, tasted 31 flavors
there's only one she really hates, that would be vanilla bean
the blend is one to make her scream
and that's what she likes to hear the most
liza's been around the block, she's currently a femme bitch top
a giant step from old louise, now she's the one who's on the pray
she used to wear her hair short long, determing her preference
she didn't like that dynamic, trading in her flannel shirts
for six inch heels, latex skirts, she even bought herself some bras
miss terrence sellers akin, she's got more power feminine
she knows the power incites fear, and it's that fear which makes her wet
she's goin' to the tribe 8 show, plenty of boychicks to choose from
it's at the calyx of isis, she'll find a bottom young and butch
she'll tell her "i won't hurt you much, unless of course you want me to.."



NOFX albums
2003 War on Errorism
2000 Pump Up the Valuum
1997 So Long And Thanks For All The Shoes
1996 Heavy Petting Zoo
1995 I Heard They Suck Live!!
1994 Punk in Drublic
1993 The Longest Line
1993 White Trash, Two Heebs & A Bean
1991 Ribbed
1989 S & M Airlines
Heavy Petting Zoo tabs
01Hobophobic (Scared Of Bums) tabbass tab
02Philthy Phil Philanthropist tabbass tab
03Freedom Lika Shopping Cart tabbass tab
04Bleeding Heart Disease tabbass tab
05Hot Dog In A Hallway tabbass tab
06Release The Hostages tabbass tab
07Liza tabbass tab
08What's The Matter With Kids Today? tabbass tab
09Love Story tabbass tab
10Black And White, The tabbass tab
11Whatever Didi Wants tabbass tab
12August 8th tabbass tab
13Drop The World tabbass tab

 

1